  0
SECTION
  2
HEADER
  9
$ACADVER
  1
AC1015
  9
$ACADMAINTVER
 70
    13
  9
$DWGCODEPAGE
  3
ANSI_932
  9
$INSBASE
 10
0.0
 20
0.0
 30
0.0
  9
$EXTMIN
 10
0.0
 20
0.0
 30
0.0
  9
$EXTMAX
 10
2000.0
 20
2870.0
 30
0.0
  9
$LIMMIN
 10
0.0
 20
0.0
  9
$LIMMAX
 10
420.0
 20
297.0
  9
$ORTHOMODE
 70
     1
  9
$REGENMODE
 70
     1
  9
$FILLMODE
 70
     1
  9
$QTEXTMODE
 70
     0
  9
$MIRRTEXT
 70
     0
  9
$LTSCALE
 40
5.0
  9
$ATTMODE
 70
     1
  9
$TEXTSIZE
 40
2.0
  9
$TRACEWID
 40
1.0
  9
$TEXTSTYLE
  7
Roman
  9
$CLAYER
  8
DIM
  9
$CELTYPE
  6
ByLayer
  9
$CECOLOR
 62
   256
  9
$CELTSCALE
 40
3.0
  9
$DISPSILH
 70
     0
  9
$DIMSCALE
 40
10.0
  9
$DIMASZ
 40
3.0
  9
$DIMEXO
 40
1.0
  9
$DIMDLI
 40
0.0
  9
$DIMRND
 40
0.0
  9
$DIMDLE
 40
0.0
  9
$DIMEXE
 40
1.0
  9
$DIMTP
 40
0.0
  9
$DIMTM
 40
0.000000001
  9
$DIMTXT
 40
3.0
  9
$DIMCEN
 40
0.09
  9
$DIMTSZ
 40
0.0
  9
$DIMTOL
 70
     0
  9
$DIMLIM
 70
     0
  9
$DIMTIH
 70
     0
  9
$DIMTOH
 70
     0
  9
$DIMSE1
 70
     0
  9
$DIMSE2
 70
     0
  9
$DIMTAD
 70
     1
  9
$DIMZIN
 70
     8
  9
$DIMBLK
  1
Open30
  9
$DIMASO
 70
     1
  9
$DIMSHO
 70
     1
  9
$DIMPOST
  1

  9
$DIMAPOST
  1

  9
$DIMALT
 70
     0
  9
$DIMALTD
 70
     2
  9
$DIMALTF
 40
25.4
  9
$DIMLFAC
 40
1.0
  9
$DIMTOFL
 70
     1
  9
$DIMTVP
 40
0.0
  9
$DIMTIX
 70
     0
  9
$DIMSOXD
 70
     0
  9
$DIMSAH
 70
     0
  9
$DIMBLK1
  1

  9
$DIMBLK2
  1

  9
$DIMSTYLE
  2
ROMANS
  9
$DIMCLRD
 70
   256
  9
$DIMCLRE
 70
   256
  9
$DIMCLRT
 70
   256
  9
$DIMTFAC
 40
0.7
  9
$DIMGAP
 40
1.0
  9
$DIMJUST
 70
     0
  9
$DIMSD1
 70
     0
  9
$DIMSD2
 70
     0
  9
$DIMTOLJ
 70
     0
  9
$DIMTZIN
 70
     8
  9
$DIMALTZ
 70
     0
  9
$DIMALTTZ
 70
     0
  9
$DIMUPT
 70
     0
  9
$DIMDEC
 70
     5
  9
$DIMTDEC
 70
     5
  9
$DIMALTU
 70
     2
  9
$DIMALTTD
 70
     2
  9
$DIMTXSTY
  7
Roman
  9
$DIMAUNIT
 70
     0
  9
$DIMADEC
 70
     1
  9
$DIMALTRND
 40
0.0
  9
$DIMAZIN
 70
     2
  9
$DIMDSEP
 70
    46
  9
$DIMATFIT
 70
     3
  9
$DIMFRAC
 70
     0
  9
$DIMLDRBLK
  1
Open30
  9
$DIMLUNIT
 70
     2
  9
$DIMLWD
 70
    -2
  9
$DIMLWE
 70
    -2
  9
$DIMTMOVE
 70
     1
  9
$LUNITS
 70
     2
  9
$LUPREC
 70
     4
  9
$SKETCHINC
 40
1.0
  9
$FILLETRAD
 40
30.0
  9
$AUNITS
 70
     0
  9
$AUPREC
 70
     0
  9
$MENU
  1
.
  9
$ELEVATION
 40
0.0
  9
$PELEVATION
 40
0.0
  9
$THICKNESS
 40
0.0
  9
$LIMCHECK
 70
     0
  9
$CHAMFERA
 40
0.0
  9
$CHAMFERB
 40
0.0
  9
$CHAMFERC
 40
20.0
  9
$CHAMFERD
 40
0.0
  9
$SKPOLY
 70
     0
  9
$TDCREATE
 40
2452142.733021111
  9
$TDUCREATE
 40
2452142.358021111
  9
$TDUPDATE
 40
2453976.606146782
  9
$TDUUPDATE
 40
2453976.231146782
  9
$TDINDWG
 40
17.0127743981
  9
$TDUSRTIMER
 40
17.0127743981
  9
$USRTIMER
 70
     1
  9
$ANGBASE
 50
0.0
  9
$ANGDIR
 70
     0
  9
$PDMODE
 70
     3
  9
$PDSIZE
 40
0.0
  9
$PLINEWID
 40
0.0
  9
$SPLFRAME
 70
     0
  9
$SPLINETYPE
 70
     6
  9
$SPLINESEGS
 70
     8
  9
$HANDSEED
  5
33443
  9
$SURFTAB1
 70
     6
  9
$SURFTAB2
 70
     6
  9
$SURFTYPE
 70
     6
  9
$SURFU
 70
     6
  9
$SURFV
 70
     6
  9
$UCSBASE
  2

  9
$UCSNAME
  2

  9
$UCSORG
 10
0.0
 20
0.0
 30
0.0
  9
$UCSXDIR
 10
1.0
 20
0.0
 30
0.0
  9
$UCSYDIR
 10
0.0
 20
1.0
 30
0.0
  9
$UCSORTHOREF
  2

  9
$UCSORTHOVIEW
 70
     0
  9
$UCSORGTOP
 10
0.0
 20
0.0
 30
0.0
  9
$UCSORGBOTTOM
 10
0.0
 20
0.0
 30
0.0
  9
$UCSORGLEFT
 10
0.0
 20
0.0
 30
0.0
  9
$UCSORGRIGHT
 10
0.0
 20
0.0
 30
0.0
  9
$UCSORGFRONT
 10
0.0
 20
0.0
 30
0.0
  9
$UCSORGBACK
 10
0.0
 20
0.0
 30
0.0
  9
$PUCSBASE
  2

  9
$PUCSNAME
  2

  9
$PUCSORG
 10
0.0
 20
0.0
 30
0.0
  9
$PUCSXDIR
 10
1.0
 20
0.0
 30
0.0
  9
$PUCSYDIR
 10
0.0
 20
1.0
 30
0.0
  9
$PUCSORTHOREF
  2

  9
$PUCSORTHOVIEW
 70
     0
  9
$PUCSORGTOP
 10
0.0
 20
0.0
 30
0.0
  9
$PUCSORGBOTTOM
 10
0.0
 20
0.0
 30
0.0
  9
$PUCSORGLEFT
 10
0.0
 20
0.0
 30
0.0
  9
$PUCSORGRIGHT
 10
0.0
 20
0.0
 30
0.0
  9
$PUCSORGFRONT
 10
0.0
 20
0.0
 30
0.0
  9
$PUCSORGBACK
 10
0.0
 20
0.0
 30
0.0
  9
$USERI1
 70
     0
  9
$USERI2
 70
     0
  9
$USERI3
 70
     0
  9
$USERI4
 70
     0
  9
$USERI5
 70
     0
  9
$USERR1
 40
0.0
  9
$USERR2
 40
0.0
  9
$USERR3
 40
0.0
  9
$USERR4
 40
0.0
  9
$USERR5
 40
0.0
  9
$WORLDVIEW
 70
     1
  9
$SHADEDGE
 70
     3
  9
$SHADEDIF
 70
    70
  9
$TILEMODE
 70
     1
  9
$MAXACTVP
 70
    64
  9
$PINSBASE
 10
0.0
 20
0.0
 30
0.0
  9
$PLIMCHECK
 70
     0
  9
$PEXTMIN
 10
1.12308328358207
 20
0.7804166500962629
 30
0.0
  9
$PEXTMAX
 10
10.10774955223864
 20
7.023749850866362
 30
0.0
  9
$PLIMMIN
 10
-0.2312499519408218
 20
-0.2312499894870548
  9
$PLIMMAX
 10
11.4620827502153
 20
8.035416452903447
  9
$UNITMODE
 70
     0
  9
$VISRETAIN
 70
     1
  9
$PLINEGEN
 70
     0
  9
$PSLTSCALE
 70
     1
  9
$TREEDEPTH
 70
  3020
  9
$CMLSTYLE
  2
Standard
  9
$CMLJUST
 70
     0
  9
$CMLSCALE
 40
20.0
  9
$PROXYGRAPHICS
 70
     1
  9
$MEASUREMENT
 70
     0
  9
$CELWEIGHT
370
    -1
  9
$ENDCAPS
280
     0
  9
$JOINSTYLE
280
     0
  9
$LWDISPLAY
290
     0
  9
$INSUNITS
 70
     4
  9
$HYPERLINKBASE
  1

  9
$STYLESHEET
  1
monochrome.ctb
  9
$XEDIT
290
     1
  9
$CEPSNTYPE
380
     0
  9
$PSTYLEMODE
290
     1
  9
$FINGERPRINTGUID
  2
{FDEAD578-A652-11D2-9A35-0060089B3A3F}
  9
$VERSIONGUID
  2
{42EB4026-FB0F-462E-A9F5-CB5D17842881}
  9
$EXTNAMES
290
     1
  9
$PSVPSCALE
 40
0.0
  9
$OLESTARTUP
290
     0
  0
ENDSEC
  0
SECTION
  2
CLASSES
  0
CLASS
  1
ACDBDICTIONARYWDFLT
  2
AcDbDictionaryWithDefault
  3
AutoCAD 2000
 90
        0
280
     0
281
     0
  0
CLASS
  1
ACDBPLACEHOLDER
  2
AcDbPlaceHolder
  3
AutoCAD 2000
 90
        0
280
     0
281
     0
  0
CLASS
  1
LAYOUT
  2
AcDbLayout
  3
AutoCAD 2000
 90
        0
280
     0
281
     0
  0
CLASS
  1
DICTIONARYVAR
  2
AcDbDictionaryVar
  3
AutoCAD 2000
 90
        0
280
     0
281
     0
  0
CLASS
  1
PLOTSETTINGS
  2
AcDbPlotSettings
  3
AutoCAD 2000
 90
    32768
280
     0
281
     0
  0
ENDSEC
  0
SECTION
  2
TABLES
  0
TABLE
  2
VPORT
  5
8
330
0
100
AcDbSymbolTable
 70
     2
  0
VPORT
  5
33442
330
8
100
AcDbSymbolTableRecord
100
AcDbViewportTableRecord
  2
*Active
 70
     0
 10
0.0
 20
0.0
 11
1.0
 21
1.0
 12
1000.051763751399
 22
1435.020796413616
 13
0.0
 23
0.0
 14
10.0
 24
10.0
 15
10.0
 25
10.0
 16
0.0
 26
0.0
 36
1.0
 17
0.0
 27
0.0
 37
0.0
 40
2892.846930744411
 41
1.574049803407601
 42
50.0
 43
0.0
 44
0.0
 50
0.0
 51
0.0
 71
     0
 72
  1000
 73
     1
 74
     2
 75
     0
 76
     0
 77
     0
 78
     0
281
     0
 65
     1
110
0.0
120
0.0
130
0.0
111
1.0
121
0.0
131
0.0
112
0.0
122
1.0
132
0.0
 79
     0
146
0.0
  0
ENDTAB
  0
TABLE
  2
LTYPE
  5
5
330
0
100
AcDbSymbolTable
 70
     3
  0
LTYPE
  5
14
330
5
100
AcDbSymbolTableRecord
100
AcDbLinetypeTableRecord
  2
ByBlock
 70
     0
  3

 72
    65
 73
     0
 40
0.0
  0
LTYPE
  5
15
330
5
100
AcDbSymbolTableRecord
100
AcDbLinetypeTableRecord
  2
ByLayer
 70
     0
  3

 72
    65
 73
     0
 40
0.0
  0
LTYPE
  5
16
330
5
100
AcDbSymbolTableRecord
100
AcDbLinetypeTableRecord
  2
Continuous
 70
     0
  3
Solid line
 72
    65
 73
     0
 40
0.0
  0
LTYPE
  5
50
330
5
100
AcDbSymbolTableRecord
100
AcDbLinetypeTableRecord
  2
CENTER
 70
     0
  3
Center ____ _ ____ _ ____ _ ____ _ ____ _ ____
 72
    65
 73
     4
 40
2.0
 49
1.25
 74
     0
 49
-0.25
 74
     0
 49
0.25
 74
     0
 49
-0.25
 74
     0
  0
LTYPE
  5
299F0
330
5
100
AcDbSymbolTableRecord
100
AcDbLinetypeTableRecord
  2
PHANTOM
 70
     0
  3
Phantom ______  __  __  ______  __  __  ______
 72
    65
 73
     6
 40
2.5
 49
1.25
 74
     0
 49
-0.25
 74
     0
 49
0.25
 74
     0
 49
-0.25
 74
     0
 49
0.25
 74
     0
 49
-0.25
 74
     0
  0
ENDTAB
  0
TABLE
  2
LAYER
  5
2
102
{ACAD_XDICTIONARY
360
2E0D5
102
}
330
0
100
AcDbSymbolTable
 70
     6
  0
LAYER
  5
10
330
2
100
AcDbSymbolTableRecord
100
AcDbLayerTableRecord
  2
0
 70
     0
 62
     6
  6
Continuous
370
    -3
390
F
  0
LAYER
  5
51
330
2
100
AcDbSymbolTableRecord
100
AcDbLayerTableRecord
  2
Defpoints
 70
     0
 62
     6
  6
Continuous
290
     0
370
    -3
390
F
  0
LAYER
  5
53
330
2
100
AcDbSymbolTableRecord
100
AcDbLayerTableRecord
  2
CONTINUOUS1
 70
     0
 62
     7
  6
Continuous
370
    25
390
F
  0
LAYER
  5
1795
330
2
100
AcDbSymbolTableRecord
100
AcDbLayerTableRecord
  2
DIM
 70
     0
 62
     4
  6
Continuous
370
    15
390
F
  0
LAYER
  5
1797
330
2
100
AcDbSymbolTableRecord
100
AcDbLayerTableRecord
  2
CENTER
 70
     0
 62
     2
  6
CENTER
370
     9
390
F
  0
LAYER
  5
299F1
330
2
100
AcDbSymbolTableRecord
100
AcDbLayerTableRecord
  2
PHANTOM
 70
     0
 62
     5
  6
PHANTOM
370
     9
390
F
  0
ENDTAB
  0
TABLE
  2
STYLE
  5
3
330
0
100
AcDbSymbolTable
 70
     2
  0
STYLE
  5
11
330
3
100
AcDbSymbolTableRecord
100
AcDbTextStyleTableRecord
  2
Standard
 70
     0
 40
0.0
 41
1.0
 50
0.0
 71
     0
 42
2.5
  3
txt
  4

  0
STYLE
  5
56
330
3
100
AcDbSymbolTableRecord
100
AcDbTextStyleTableRecord
  2
Roman
 70
     0
 40
0.0
 41
1.0
 50
0.0
 71
     0
 42
2.0
  3
monotxt.shx
  4
extfont.shx
  0
ENDTAB
  0
TABLE
  2
VIEW
  5
6
330
0
100
AcDbSymbolTable
 70
     1
  0
VIEW
  5
915E
330
6
100
AcDbSymbolTableRecord
100
AcDbViewTableRecord
  2
ver
 70
     0
 40
7045.613907487581
 10
-4790.815363240545
 20
3611.376516816376
 41
5375.226361339651
 11
0.0
 21
0.0
 31
1.0
 12
0.0
 22
0.0
 32
0.0
 42
50.0
 43
0.0
 44
0.0
 50
0.0
 71
     0
281
     0
 72
     1
110
0.0
120
0.0
130
0.0
111
1.0
121
0.0
131
0.0
112
0.0
122
1.0
132
0.0
 79
     0
146
0.0
  0
ENDTAB
  0
TABLE
  2
UCS
  5
7
330
0
100
AcDbSymbolTable
 70
     2
  0
UCS
  5
19FE
330
7
100
AcDbSymbolTableRecord
100
AcDbUCSTableRecord
  2
migi
 70
     0
 10
0.0
 20
0.0
 30
0.0
 11
0.7071067811865476
 21
0.7071067811865475
 31
0.0
 12
-0.7071067811865475
 22
0.7071067811865476
 32
0.0
 79
     0
146
0.0
  0
UCS
  5
1A00
330
7
100
AcDbSymbolTableRecord
100
AcDbUCSTableRecord
  2
hidari
 70
     0
 10
-64.13422370724777
 20
64.13422370724777
 30
0.0
 11
0.7071067811865476
 21
-0.7071067811865476
 31
0.0
 12
0.7071067811865476
 22
0.7071067811865476
 32
0.0
 79
     0
146
0.0
  0
ENDTAB
  0
TABLE
  2
APPID
  5
9
330
0
100
AcDbSymbolTable
 70
     1
  0
APPID
  5
12
330
9
100
AcDbSymbolTableRecord
100
AcDbRegAppTableRecord
  2
ACAD
 70
     0
  0
ENDTAB
  0
TABLE
  2
DIMSTYLE
  5
A
330
0
100
AcDbSymbolTable
 70
     1
100
AcDbDimStyleTable
 71
     1
340
5A
  0
DIMSTYLE
105
5A
330
A
100
AcDbSymbolTableRecord
100
AcDbDimStyleTableRecord
  2
ROMANS
 70
     0
 41
4.0
 42
0.5
 43
0.0
 44
0.5
 73
     0
 74
     0
 77
     1
 78
     8
140
4.0
147
1.0
172
     1
176
     2
177
     2
178
     2
271
     1
272
     1
289
     2
340
56
341
4A
342
4A
  0
ENDTAB
  0
TABLE
  2
BLOCK_RECORD
  5
1
330
0
100
AcDbSymbolTable
 70
     2
  0
BLOCK_RECORD
  5
1F
330
1
100
AcDbSymbolTableRecord
100
AcDbBlockTableRecord
  2
*Model_Space
340
22
  0
BLOCK_RECORD
  5
2D9D8
330
1
100
AcDbSymbolTableRecord
100
AcDbBlockTableRecord
  2
*Paper_Space
340
2D9D9
  0
BLOCK_RECORD
  5
4A
330
1
100
AcDbSymbolTableRecord
100
AcDbBlockTableRecord
  2
_Open
340
0
  0
BLOCK_RECORD
  5
FB25
330
1
100
AcDbSymbolTableRecord
100
AcDbBlockTableRecord
  2
_Open30
340
0
  0
ENDTAB
  0
ENDSEC
  0
SECTION
  2
BLOCKS
  0
BLOCK
  5
20
330
1F
100
AcDbEntity
  8
0
100
AcDbBlockBegin
  2
*Model_Space
 70
     0
 10
0.0
 20
0.0
 30
0.0
  3
*Model_Space
  1

  0
ENDBLK
  5
21
330
1F
100
AcDbEntity
  8
0
100
AcDbBlockEnd
  0
BLOCK
  5
2D9DA
330
2D9D8
100
AcDbEntity
 67
     1
  8
0
100
AcDbBlockBegin
  2
*Paper_Space
 70
     0
 10
0.0
 20
0.0
 30
0.0
  3
*Paper_Space
  1

  0
ENDBLK
  5
2D9DB
330
2D9D8
100
AcDbEntity
 67
     1
  8
0
100
AcDbBlockEnd
  0
BLOCK
  5
4E
330
4A
100
AcDbEntity
  8
0
100
AcDbBlockBegin
  2
_Open
 70
     0
 10
0.0
 20
0.0
 30
0.0
  3
_Open
  1

  0
LINE
  5
4B
330
4A
100
AcDbEntity
  8
0
  6
Continuous
 62
     0
370
    -2
100
AcDbLine
 10
-1.0
 20
0.1666666666666666
 30
0.0
 11
0.0
 21
0.0
 31
0.0
  0
LINE
  5
4C
330
4A
100
AcDbEntity
  8
0
  6
Continuous
 62
     0
370
    -2
100
AcDbLine
 10
-1.0
 20
-0.1666666666666666
 30
0.0
 11
0.0
 21
0.0
 31
0.0
  0
LINE
  5
4D
330
4A
100
AcDbEntity
  8
0
  6
Continuous
 62
     0
370
    -2
100
AcDbLine
 10
0.0
 20
0.0
 30
0.0
 11
-1.0
 21
0.0
 31
0.0
  0
ENDBLK
  5
4F
330
4A
100
AcDbEntity
  8
0
100
AcDbBlockEnd
  0
BLOCK
  5
FB29
330
FB25
100
AcDbEntity
  8
0
100
AcDbBlockBegin
  2
_Open30
 70
     0
 10
0.0
 20
0.0
 30
0.0
  3
_Open30
  1

  0
LINE
  5
FB26
330
FB25
100
AcDbEntity
  8
0
 62
     0
370
    -2
100
AcDbLine
 10
-1.0
 20
0.26794919
 30
0.0
 11
0.0
 21
0.0
 31
0.0
  0
LINE
  5
FB27
330
FB25
100
AcDbEntity
  8
0
 62
     0
370
    -2
100
AcDbLine
 10
0.0
 20
0.0
 30
0.0
 11
-1.0
 21
-0.26794919
 31
0.0
  0
LINE
  5
FB28
330
FB25
100
AcDbEntity
  8
0
 62
     0
370
    -2
100
AcDbLine
 10
0.0
 20
0.0
 30
0.0
 11
-1.0
 21
0.0
 31
0.0
  0
ENDBLK
  5
FB2A
330
FB25
100
AcDbEntity
  8
0
100
AcDbBlockEnd
  0
ENDSEC
  0
SECTION
  2
ENTITIES
  0
MTEXT
  5
28FE
330
1F
100
AcDbEntity
  8
DIM
 48
3.0
100
AcDbMText
 10
341.7848766964359
 20
796.0203856594869
 30
0.0
 40
8.0
 41
0.0
 71
     9
 72
     1
  1

  7
Roman
 73
     1
 44
1.0
  0
LINE
  5
32308
330
1F
100
AcDbEntity
  8
CONTINUOUS1
 48
3.0
100
AcDbLine
 10
1095.979145308755
 20
1395.187914999926
 30
0.0
 11
1096.059077355325
 21
1383.279000748415
 31
0.0
  0
LINE
  5
32309
330
1F
100
AcDbEntity
  8
CONTINUOUS1
 48
3.0
100
AcDbLine
 10
1134.088963124516
 20
1380.611180354908
 30
0.0
 11
1099.088963124516
 21
1380.30518035491
 31
0.0
  0
LINE
  5
3230A
330
1F
100
AcDbEntity
  8
CONTINUOUS1
 48
3.0
100
AcDbLine
 10
1099.088963124516
 20
1380.30518035491
 30
0.0
 11
1099.128963124515
 21
1375.30618035491
 31
0.0
  0
LINE
  5
3230B
330
1F
100
AcDbEntity
  8
CONTINUOUS1
 48
3.0
100
AcDbLine
 10
1134.128963124515
 20
1375.611180354908
 30
0.0
 11
1096.152887858616
 21
1375.279389381532
 31
0.0
  0
LINE
  5
3230C
330
1F
100
AcDbEntity
  8
CONTINUOUS1
 48
3.0
100
AcDbLine
 10
1134.088963124516
 20
1380.611180354908
 30
0.0
 11
1099.088963124516
 21
1380.30518035491
 31
0.0
  0
LINE
  5
32312
330
1F
100
AcDbEntity
  8
CONTINUOUS1
 48
3.0
100
AcDbLine
 10
963.0651282646567
 20
1058.483372357758
 30
0.0
 11
962.1924008418455
 21
958.486991525368
 31
0.0
  0
LINE
  5
32313
330
1F
100
AcDbEntity
  8
CONTINUOUS1
 48
3.0
100
AcDbLine
 10
947.1887645393954
 20
1073.610180354909
 30
0.0
 11
946.0587645393962
 21
943.6151803549105
 31
0.0
  0
LINE
  5
3231F
330
1F
100
AcDbEntity
  8
CONTINUOUS1
 48
3.0
100
AcDbLine
 10
1176.478764539396
 20
1108.946180354908
 30
0.0
 11
1176.698764539395
 21
1083.94718035491
 31
0.0
  0
LINE
  5
32345
330
1F
100
AcDbEntity
  8
CONTINUOUS1
 48
3.0
100
AcDbLine
 10
968.3787645393959
 20
729.74218035491
 30
0.0
 11
968.3787645393959
 21
726.74218035491
 31
0.0
  0
LINE
  5
3234F
330
1F
100
AcDbEntity
  8
CONTINUOUS1
 48
3.0
100
AcDbLine
 10
1005.378764539395
 20
729.74218035491
 30
0.0
 11
968.3787645393959
 21
729.74218035491
 31
0.0
  0
LINE
  5
32399
330
1F
100
AcDbEntity
  8
CONTINUOUS1
 48
3.0
100
AcDbLine
 10
1139.378764539395
 20
776.4401803549104
 30
0.0
 11
1139.408764539396
 21
773.3201803549104
 31
0.0
  0
LINE
  5
3239A
330
1F
100
AcDbEntity
  8
CONTINUOUS1
 48
3.0
100
AcDbLine
 10
1110.028764539395
 20
764.6161803549089
 30
0.0
 11
1139.408764539396
 21
773.3201803549104
 31
0.0
  0
LINE
  5
3239B
330
1F
100
AcDbEntity
  8
CONTINUOUS1
 48
3.0
100
AcDbLine
 10
1117.928764539395
 20
1451.11218035491
 30
0.0
 11
1119.938764539395
 21
1451.412180354911
 31
0.0
  0
LINE
  5
3239C
330
1F
100
AcDbEntity
  8
CONTINUOUS1
 48
3.0
100
AcDbLine
 10
1117.928764539395
 20
1451.712180354908
 30
0.0
 11
1119.938764539395
 21
1451.412180354911
 31
0.0
  0
LINE
  5
3239D
330
1F
100
AcDbEntity
  8
CONTINUOUS1
 48
3.0
100
AcDbLine
 10
1115.698764539395
 20
1447.852180354909
 30
0.0
 11
1116.968764539395
 21
1446.262180354909
 31
0.0
  0
LINE
  5
3239E
330
1F
100
AcDbEntity
  8
CONTINUOUS1
 48
3.0
100
AcDbLine
 10
1116.218764539395
 20
1448.152180354909
 30
0.0
 11
1116.968764539395
 21
1446.262180354909
 31
0.0
  0
LINE
  5
3239F
330
1F
100
AcDbEntity
  8
CONTINUOUS1
 48
3.0
100
AcDbLine
 10
1116.218764539395
 20
1454.67218035491
 30
0.0
 11
1116.968764539395
 21
1456.562180354908
 31
0.0
  0
LINE
  5
323A0
330
1F
100
AcDbEntity
  8
CONTINUOUS1
 48
3.0
100
AcDbLine
 10
1110.048764539395
 20
1451.11218035491
 30
0.0
 11
1108.038764539395
 21
1451.412180354911
 31
0.0
  0
LINE
  5
323A1
330
1F
100
AcDbEntity
  8
CONTINUOUS1
 48
3.0
100
AcDbLine
 10
1110.048764539395
 20
1451.712180354908
 30
0.0
 11
1108.038764539395
 21
1451.412180354911
 31
0.0
  0
LINE
  5
323A2
330
1F
100
AcDbEntity
  8
CONTINUOUS1
 48
3.0
100
AcDbLine
 10
1115.698764539395
 20
1454.97218035491
 30
0.0
 11
1116.968764539395
 21
1456.562180354908
 31
0.0
  0
LINE
  5
323A3
330
1F
100
AcDbEntity
  8
CONTINUOUS1
 48
3.0
100
AcDbLine
 10
1111.758764539396
 20
1448.152180354909
 30
0.0
 11
1111.018764539395
 21
1446.262180354909
 31
0.0
  0
LINE
  5
323A4
330
1F
100
AcDbEntity
  8
CONTINUOUS1
 48
3.0
100
AcDbLine
 10
1112.278764539395
 20
1447.852180354909
 30
0.0
 11
1111.018764539395
 21
1446.262180354909
 31
0.0
  0
LINE
  5
323A5
330
1F
100
AcDbEntity
  8
CONTINUOUS1
 48
3.0
100
AcDbLine
 10
1112.278764539395
 20
1454.97218035491
 30
0.0
 11
1111.018764539395
 21
1456.562180354908
 31
0.0
  0
LINE
  5
323A6
330
1F
100
AcDbEntity
  8
CONTINUOUS1
 48
3.0
100
AcDbLine
 10
1111.758764539396
 20
1454.67218035491
 30
0.0
 11
1111.018764539395
 21
1456.562180354908
 31
0.0
  0
LINE
  5
323A7
330
1F
100
AcDbEntity
  8
CONTINUOUS1
 48
3.0
100
AcDbLine
 10
1098.988764539396
 20
1051.049180354908
 30
0.0
 11
1096.152887858616
 21
1375.279389381532
 31
0.0
  0
LINE
  5
323A8
330
1F
100
AcDbEntity
  8
CONTINUOUS1
 48
3.0
100
AcDbLine
 10
973.9287645393952
 20
1451.11218035491
 30
0.0
 11
975.9387645393953
 21
1451.412180354911
 31
0.0
  0
LINE
  5
323A9
330
1F
100
AcDbEntity
  8
CONTINUOUS1
 48
3.0
100
AcDbLine
 10
973.9287645393952
 20
1451.712180354908
 30
0.0
 11
975.9387645393953
 21
1451.412180354911
 31
0.0
  0
LINE
  5
323AA
330
1F
100
AcDbEntity
  8
CONTINUOUS1
 48
3.0
100
AcDbLine
 10
971.6987645393956
 20
1447.852180354909
 30
0.0
 11
972.968764539396
 21
1446.262180354909
 31
0.0
  0
LINE
  5
323AB
330
1F
100
AcDbEntity
  8
CONTINUOUS1
 48
3.0
100
AcDbLine
 10
972.218764539396
 20
1448.152180354909
 30
0.0
 11
972.968764539396
 21
1446.262180354909
 31
0.0
  0
LINE
  5
323AC
330
1F
100
AcDbEntity
  8
CONTINUOUS1
 48
3.0
100
AcDbLine
 10
972.218764539396
 20
1454.67218035491
 30
0.0
 11
972.968764539396
 21
1456.562180354908
 31
0.0
  0
LINE
  5
323AD
330
1F
100
AcDbEntity
  8
CONTINUOUS1
 48
3.0
100
AcDbLine
 10
966.048764539396
 20
1451.11218035491
 30
0.0
 11
964.0387645393957
 21
1451.412180354911
 31
0.0
  0
LINE
  5
323AE
330
1F
100
AcDbEntity
  8
CONTINUOUS1
 48
3.0
100
AcDbLine
 10
966.048764539396
 20
1451.712180354908
 30
0.0
 11
964.0387645393957
 21
1451.412180354911
 31
0.0
  0
LINE
  5
323AF
330
1F
100
AcDbEntity
  8
CONTINUOUS1
 48
3.0
100
AcDbLine
 10
971.6987645393956
 20
1454.97218035491
 30
0.0
 11
972.968764539396
 21
1456.562180354908
 31
0.0
  0
LINE
  5
323B0
330
1F
100
AcDbEntity
  8
CONTINUOUS1
 48
3.0
100
AcDbLine
 10
967.7587645393968
 20
1448.152180354909
 30
0.0
 11
967.0187645393953
 21
1446.262180354909
 31
0.0
  0
LINE
  5
323B1
330
1F
100
AcDbEntity
  8
CONTINUOUS1
 48
3.0
100
AcDbLine
 10
968.2787645393956
 20
1447.852180354909
 30
0.0
 11
967.0187645393953
 21
1446.262180354909
 31
0.0
  0
LINE
  5
323B2
330
1F
100
AcDbEntity
  8
CONTINUOUS1
 48
3.0
100
AcDbLine
 10
968.2787645393956
 20
1454.97218035491
 30
0.0
 11
967.0187645393953
 21
1456.562180354908
 31
0.0
  0
LINE
  5
323B3
330
1F
100
AcDbEntity
  8
CONTINUOUS1
 48
3.0
100
AcDbLine
 10
967.7587645393968
 20
1454.67218035491
 30
0.0
 11
967.0187645393953
 21
1456.562180354908
 31
0.0
  0
LINE
  5
3243D
330
1F
100
AcDbEntity
  8
CONTINUOUS1
 48
3.0
100
AcDbLine
 10
956.8987645393963
 20
1440.57218035491
 30
0.0
 11
956.9887645393965
 21
1451.532180354909
 31
0.0
  0
LINE
  5
3243E
330
1F
100
AcDbEntity
  8
CONTINUOUS1
 48
3.0
100
AcDbLine
 10
1066.488764539396
 20
1470.91218035491
 30
0.0
 11
1114.028764539395
 21
1470.91218035491
 31
0.0
  0
LINE
  5
3243F
330
1F
100
AcDbEntity
  8
CONTINUOUS1
 48
3.0
100
AcDbLine
 10
1175.098764539395
 20
656.24218035491
 30
0.0
 11
1175.098764539395
 21
406.74218035491
 31
0.0
  0
LINE
  5
32462
330
1F
100
AcDbEntity
  8
CONTINUOUS1
 48
3.0
100
AcDbLine
 10
968.3787645393959
 20
730.24218035491
 30
0.0
 11
968.3787645393959
 21
729.74218035491
 31
0.0
  0
LINE
  5
32463
330
1F
100
AcDbEntity
  8
CONTINUOUS1
 48
3.0
100
AcDbLine
 10
1005.378764539395
 20
730.5261803549087
 30
0.0
 11
1005.378764539395
 21
729.74218035491
 31
0.0
  0
LINE
  5
32464
330
1F
100
AcDbEntity
  8
CONTINUOUS1
 48
3.0
100
AcDbLine
 10
968.3787645393959
 20
730.5261803549087
 30
0.0
 11
968.3787645393959
 21
729.74218035491
 31
0.0
  0
LINE
  5
32473
330
1F
100
AcDbEntity
  8
CONTINUOUS1
 48
3.0
100
AcDbLine
 10
1005.378764539395
 20
730.24218035491
 30
0.0
 11
1005.378764539395
 21
729.74218035491
 31
0.0
  0
LINE
  5
32492
330
1F
100
AcDbEntity
  8
CONTINUOUS1
 48
3.0
100
AcDbLine
 10
1010.598764539395
 20
424.24218035491
 30
0.0
 11
1010.598764539395
 21
395.24218035491
 31
0.0
  0
LINE
  5
324B9
330
1F
100
AcDbEntity
  8
CONTINUOUS1
 48
3.0
100
AcDbLine
 10
1096.878764539396
 20
443.1289803549093
 30
0.0
 11
1096.878764539396
 21
437.3554303549094
 31
0.0
  0
LINE
  5
32566
330
1F
100
AcDbEntity
  8
CONTINUOUS1
 48
3.0
100
AcDbLine
 10
1126.528764539395
 20
396.74218035491
 30
0.0
 11
1165.098764539395
 21
396.74218035491
 31
0.0
  0
LINE
  5
32567
330
1F
100
AcDbEntity
  8
CONTINUOUS1
 48
3.0
100
AcDbLine
 10
1010.598764539395
 20
666.24218035491
 30
0.0
 11
1165.098764539395
 21
666.24218035491
 31
0.0
  0
LINE
  5
32568
330
1F
100
AcDbEntity
  8
CONTINUOUS1
 48
3.0
100
AcDbLine
 10
1010.598764539395
 20
666.24218035491
 30
0.0
 11
1010.598764539395
 21
456.24218035491
 31
0.0
  0
LINE
  5
32569
330
1F
100
AcDbEntity
  8
CONTINUOUS1
 48
3.0
100
AcDbLine
 10
1010.598764539395
 20
395.24218035491
 30
0.0
 11
1080.088764539396
 21
395.24218035491
 31
0.0
  0
LINE
  5
32577
330
1F
100
AcDbEntity
  8
CONTINUOUS1
 48
3.0
100
AcDbLine
 10
1026.098764539395
 20
695.74218035491
 30
0.0
 11
1062.098764539395
 21
695.74218035491
 31
0.0
  0
LINE
  5
32578
330
1F
100
AcDbEntity
  8
CONTINUOUS1
 48
3.0
100
AcDbLine
 10
1019.168764539396
 20
720.74218035491
 30
0.0
 11
1062.098764539395
 21
720.74218035491
 31
0.0
  0
LINE
  5
32586
330
1F
100
AcDbEntity
  8
CONTINUOUS1
 48
3.0
100
AcDbLine
 10
1009.098764539395
 20
670.24218035491
 30
0.0
 11
1062.098764539395
 21
670.24218035491
 31
0.0
  0
LINE
  5
32587
330
1F
100
AcDbEntity
  8
CONTINUOUS1
 48
3.0
100
AcDbLine
 10
1132.098764539395
 20
670.24218035491
 30
0.0
 11
1179.098764539395
 21
670.24218035491
 31
0.0
  0
LINE
  5
32589
330
1F
100
AcDbEntity
  8
CONTINUOUS1
 48
3.0
100
AcDbLine
 10
1062.098764539395
 20
779.1691803549087
 30
0.0
 11
1062.098764539395
 21
666.24218035491
 31
0.0
  0
LINE
  5
3258A
330
1F
100
AcDbEntity
  8
CONTINUOUS1
 48
3.0
100
AcDbLine
 10
1132.098764539395
 20
771.1551803549095
 30
0.0
 11
1132.098764539395
 21
666.24218035491
 31
0.0
  0
LINE
  5
3258B
330
1F
100
AcDbEntity
  8
CONTINUOUS1
 48
3.0
100
AcDbLine
 10
1017.598764539395
 20
396.74218035491
 30
0.0
 11
1077.228764539396
 21
396.74218035491
 31
0.0
  0
LINE
  5
3258C
330
1F
100
AcDbEntity
  8
CONTINUOUS1
 48
3.0
100
AcDbLine
 10
1179.098764539395
 20
670.24218035491
 30
0.0
 11
1179.098764539395
 21
395.24218035491
 31
0.0
  0
LINE
  5
3258D
330
1F
100
AcDbEntity
  8
CONTINUOUS1
 48
3.0
100
AcDbLine
 10
1009.098764539395
 20
666.24218035491
 30
0.0
 11
1062.098764539395
 21
666.24218035491
 31
0.0
  0
LINE
  5
3258E
330
1F
100
AcDbEntity
  8
CONTINUOUS1
 48
3.0
100
AcDbLine
 10
1017.598764539395
 20
666.24218035491
 30
0.0
 11
1017.598764539395
 21
456.24218035491
 31
0.0
  0
LINE
  5
3258F
330
1F
100
AcDbEntity
  8
CONTINUOUS1
 48
3.0
100
AcDbLine
 10
1009.098764539395
 20
670.24218035491
 30
0.0
 11
1009.098764539395
 21
666.24218035491
 31
0.0
  0
LINE
  5
32590
330
1F
100
AcDbEntity
  8
CONTINUOUS1
 48
3.0
100
AcDbLine
 10
1017.598764539395
 20
666.24218035491
 30
0.0
 11
1179.098764539395
 21
666.24218035491
 31
0.0
  0
LINE
  5
3259B
330
1F
100
AcDbEntity
  8
CONTINUOUS1
 48
3.0
100
AcDbLine
 10
1113.988764539396
 20
1434.41218035491
 30
0.0
 11
1113.988764539396
 21
1431.914180354908
 31
0.0
  0
LINE
  5
3259D
330
1F
100
AcDbEntity
  8
CONTINUOUS1
 48
3.0
100
AcDbLine
 10
1138.488764539396
 20
1451.632180354908
 30
0.0
 11
1163.488764539396
 21
1451.842180354909
 31
0.0
  0
LINE
  5
3259E
330
1F
100
AcDbEntity
  8
CONTINUOUS1
 48
3.0
100
AcDbLine
 10
904.8987645393962
 20
811.1561803549088
 30
0.0
 11
910.4087645393965
 21
1441.942180354909
 31
0.0
  0
LINE
  5
3259F
330
1F
100
AcDbEntity
  8
CONTINUOUS1
 48
3.0
100
AcDbLine
 10
920.4887645393965
 20
1451.862180354909
 30
0.0
 11
945.4887645393965
 21
1451.64218035491
 31
0.0
  0
LINE
  5
325A0
330
1F
100
AcDbEntity
  8
CONTINUOUS1
 48
3.0
100
AcDbLine
 10
937.6087645393955
 20
773.6831803549089
 30
0.0
 11
939.5787645393966
 21
773.6661803549099
 31
0.0
  0
LINE
  5
325A1
330
1F
100
AcDbEntity
  8
CONTINUOUS1
 48
3.0
100
AcDbLine
 10
973.9587645393958
 20
764.6161803549089
 30
0.0
 11
944.5687645393963
 21
773.3201803549104
 31
0.0
  0
LINE
  5
325A2
330
1F
100
AcDbEntity
  8
CONTINUOUS1
 48
3.0
100
AcDbLine
 10
944.6187645393957
 20
778.6221803549083
 30
0.0
 11
944.5687645393963
 21
773.3321803549093
 31
0.0
  0
LINE
  5
325A3
330
1F
100
AcDbEntity
  8
CONTINUOUS1
 48
3.0
100
AcDbLine
 10
983.6687645393967
 20
898.786180354909
 30
0.0
 11
945.6687645393968
 21
899.11718035491
 31
0.0
  0
LINE
  5
325A4
330
1F
100
AcDbEntity
  8
CONTINUOUS1
 48
3.0
100
AcDbLine
 10
980.6287645393959
 20
893.7581803549106
 30
0.0
 11
980.6687645393967
 21
898.8121803549088
 31
0.0
  0
LINE
  5
325A5
330
1F
100
AcDbEntity
  8
CONTINUOUS1
 48
3.0
100
AcDbLine
 10
983.6687645393967
 20
898.786180354909
 30
0.0
 11
987.8287645393966
 21
1375.27918035491
 31
0.0
  0
LINE
  5
325A6
330
1F
100
AcDbEntity
  8
CONTINUOUS1
 48
3.0
100
AcDbLine
 10
992.1887645393953
 20
867.7581803549106
 30
0.0
 11
1019.328764539396
 21
840.1331803549105
 31
0.0
  0
LINE
  5
325A7
330
1F
100
AcDbEntity
  8
CONTINUOUS1
 48
3.0
100
AcDbLine
 10
984.8687645393956
 20
1380.30518035491
 30
0.0
 11
949.8687645393957
 21
1380.611180354908
 31
0.0
  0
LINE
  5
325A8
330
1F
100
AcDbEntity
  8
CONTINUOUS1
 48
3.0
100
AcDbLine
 10
983.5887645393968
 20
889.0471803549102
 30
0.0
 11
983.5987645393952
 21
890.7321803549089
 31
0.0
  0
LINE
  5
325A9
330
1F
100
AcDbEntity
  8
CONTINUOUS1
 48
3.0
100
AcDbLine
 10
979.8287645393966
 20
1405.107180354908
 30
0.0
 11
950.1387645393961
 21
1410.610180354909
 31
0.0
  0
LINE
  5
325AA
330
1F
100
AcDbEntity
  8
CONTINUOUS1
 48
3.0
100
AcDbLine
 10
987.8287645393966
 20
1375.27918035491
 30
0.0
 11
949.8287645393967
 21
1375.611180354908
 31
0.0
  0
LINE
  5
325AB
330
1F
100
AcDbEntity
  8
CONTINUOUS1
 48
3.0
100
AcDbLine
 10
945.6287645393958
 20
894.0631803549099
 30
0.0
 11
980.6287645393959
 21
893.7581803549106
 31
0.0
  0
LINE
  5
325AC
330
1F
100
AcDbEntity
  8
CONTINUOUS1
 48
3.0
100
AcDbLine
 10
982.5787645393965
 20
1404.596180354908
 30
0.0
 11
982.9887645393965
 21
1451.312180354908
 31
0.0
  0
LINE
  5
325AD
330
1F
100
AcDbEntity
  8
CONTINUOUS1
 48
3.0
100
AcDbLine
 10
984.8287645393966
 20
1375.30618035491
 30
0.0
 11
984.8687645393956
 21
1380.30518035491
 31
0.0
  0
LINE
  5
325AE
330
1F
100
AcDbEntity
  8
CONTINUOUS1
 48
3.0
100
AcDbLine
 10
984.1487645393963
 20
953.295180354909
 30
0.0
 11
967.148575723705
 21
953.4435456391179
 31
0.0
  0
LINE
  5
325AF
330
1F
100
AcDbEntity
  8
CONTINUOUS1
 48
3.0
100
AcDbLine
 10
985.1087645393954
 20
1063.29118035491
 30
0.0
 11
968.1085725503953
 21
1063.439545666813
 31
0.0
  0
LINE
  5
325B0
330
1F
100
AcDbEntity
  8
CONTINUOUS1
 48
3.0
100
AcDbLine
 10
987.8987645393962
 20
1383.27918035491
 30
0.0
 11
987.9987645393967
 21
1395.187180354908
 31
0.0
  0
LINE
  5
325B1
330
1F
100
AcDbEntity
  8
CONTINUOUS1
 48
3.0
100
AcDbLine
 10
944.6187645393957
 20
778.6221803549083
 30
0.0
 11
946.0587645393962
 21
943.6151803549105
 31
0.0
  0
LINE
  5
325B2
330
1F
100
AcDbEntity
  8
CONTINUOUS1
 48
3.0
100
AcDbLine
 10
947.1887645393954
 20
1073.610180354909
 30
0.0
 11
950.4487645393956
 21
1446.592180354909
 31
0.0
  0
LINE
  5
325B3
330
1F
100
AcDbEntity
  8
CONTINUOUS1
 48
3.0
100
AcDbLine
 10
956.6287645393959
 20
1409.40718035491
 30
0.0
 11
956.8687645393957
 21
1436.99218035491
 31
0.0
  0
LINE
  5
325B4
330
1F
100
AcDbEntity
  8
CONTINUOUS1
 48
3.0
100
AcDbLine
 10
969.9887645393964
 20
1434.41218035491
 30
0.0
 11
969.9887645393964
 21
1431.914180354908
 31
0.0
  0
LINE
  5
325B5
330
1F
100
AcDbEntity
  8
CONTINUOUS1
 48
3.0
100
AcDbLine
 10
1066.488764539396
 20
1464.412180354911
 30
0.0
 11
1114.028764539395
 21
1464.412180354911
 31
0.0
  0
LINE
  5
325B6
330
1F
100
AcDbEntity
  8
CONTINUOUS1
 48
3.0
100
AcDbLine
 10
1066.488764539396
 20
1438.41218035491
 30
0.0
 11
1101.108764539395
 21
1438.41218035491
 31
0.0
  0
LINE
  5
325B7
330
1F
100
AcDbEntity
  8
CONTINUOUS1
 48
3.0
100
AcDbLine
 10
1021.878764539396
 20
779.1691803549087
 30
0.0
 11
1021.878764539396
 21
734.24218035491
 31
0.0
  0
LINE
  5
325B8
330
1F
100
AcDbEntity
  8
CONTINUOUS1
 48
3.0
100
AcDbLine
 10
951.8787645393958
 20
771.1551803549095
 30
0.0
 11
951.8787645393958
 21
734.24218035491
 31
0.0
  0
LINE
  5
325B9
330
1F
100
AcDbEntity
  8
CONTINUOUS1
 48
3.0
100
AcDbLine
 10
1101.878764539395
 20
446.0156803549103
 30
0.0
 11
1106.878764539396
 21
443.1289803549093
 31
0.0
  0
LINE
  5
325BA
330
1F
100
AcDbEntity
  8
CONTINUOUS1
 48
3.0
100
AcDbLine
 10
969.3787645393959
 20
493.24218035491
 30
0.0
 11
969.3787645393959
 21
483.8282803549096
 31
0.0
  0
LINE
  5
325BB
330
1F
100
AcDbEntity
  8
CONTINUOUS1
 48
3.0
100
AcDbLine
 10
1146.368764539395
 20
773.6711803549092
 30
0.0
 11
1144.408764539396
 21
773.6531803549092
 31
0.0
  0
LINE
  5
325BC
330
1F
100
AcDbEntity
  8
CONTINUOUS1
 48
3.0
100
AcDbLine
 10
1179.078764539396
 20
811.14418035491
 30
0.0
 11
1176.698764539395
 21
1083.94718035491
 31
0.0
  0
LINE
  5
325BD
330
1F
100
AcDbEntity
  8
CONTINUOUS1
 48
3.0
100
AcDbLine
 10
1176.478764539396
 20
1108.946180354908
 30
0.0
 11
1173.578764539396
 21
1441.932180354908
 31
0.0
  0
LINE
  5
325BE
330
1F
100
AcDbEntity
  8
CONTINUOUS1
 48
3.0
100
AcDbLine
 10
1139.358764539395
 20
778.6101803549095
 30
0.0
 11
1133.538764539395
 21
1446.582180354909
 31
0.0
  0
LINE
  5
325BF
330
1F
100
AcDbEntity
  8
CONTINUOUS1
 48
3.0
100
AcDbLine
 10
1138.308764539396
 20
899.0631803549099
 30
0.0
 11
1100.318764539396
 21
898.732180354909
 31
0.0
  0
LINE
  5
325C0
330
1F
100
AcDbEntity
  8
CONTINUOUS1
 48
3.0
100
AcDbLine
 10
1138.358764539395
 20
894.0631803549099
 30
0.0
 11
1103.358764539395
 21
893.7581803549106
 31
0.0
  0
LINE
  5
325C1
330
1F
100
AcDbEntity
  8
CONTINUOUS1
 48
3.0
100
AcDbLine
 10
1104.158764539396
 20
1405.107180354908
 30
0.0
 11
1133.848764539395
 21
1410.610180354909
 31
0.0
  0
LINE
  5
325C2
330
1F
100
AcDbEntity
  8
CONTINUOUS1
 48
3.0
100
AcDbLine
 10
1103.358764539395
 20
893.7581803549106
 30
0.0
 11
1103.318764539396
 21
898.7581803549105
 31
0.0
  0
LINE
  5
325C3
330
1F
100
AcDbEntity
  8
CONTINUOUS1
 48
3.0
100
AcDbLine
 10
1100.398764539396
 20
889.0471803549102
 30
0.0
 11
1100.378764539396
 21
890.7321803549089
 31
0.0
  0
LINE
  5
325C4
330
1F
100
AcDbEntity
  8
CONTINUOUS1
 48
3.0
100
AcDbLine
 10
1100.318764539396
 20
898.732180354909
 30
0.0
 11
1098.988764539396
 21
1051.049180354908
 31
0.0
  0
LINE
  5
325C5
330
1F
100
AcDbEntity
  8
CONTINUOUS1
 48
3.0
100
AcDbLine
 10
1091.798764539396
 20
867.7581803549106
 30
0.0
 11
1064.648764539396
 21
840.1331803549105
 31
0.0
  0
LINE
  5
325C6
330
1F
100
AcDbEntity
  8
CONTINUOUS1
 48
3.0
100
AcDbLine
 10
1110.028764539395
 20
764.6161803549089
 30
0.0
 11
1139.408764539396
 21
773.3201803549104
 31
0.0
  0
LINE
  5
325C7
330
1F
100
AcDbEntity
  8
CONTINUOUS1
 48
3.0
100
AcDbLine
 10
1127.118764539395
 20
1436.99218035491
 30
0.0
 11
1127.358764539395
 21
1409.40718035491
 31
0.0
  0
LINE
  5
325C8
330
1F
100
AcDbEntity
  8
CONTINUOUS1
 48
3.0
100
AcDbLine
 10
944.8787645393959
 20
434.4686803549088
 30
0.0
 11
949.8787645393958
 21
437.3554303549094
 31
0.0
  0
LINE
  5
325C9
330
1F
100
AcDbEntity
  8
CONTINUOUS1
 48
3.0
100
AcDbLine
 10
1126.988764539396
 20
1451.532180354909
 30
0.0
 11
1127.088764539396
 21
1440.57218035491
 31
0.0
  0
LINE
  5
325CA
330
1F
100
AcDbEntity
  8
CONTINUOUS1
 48
3.0
100
AcDbLine
 10
1005.378764539395
 20
729.74218035491
 30
0.0
 11
1005.378764539395
 21
456.24218035491
 31
0.0
  0
LINE
  5
325CB
330
1F
100
AcDbEntity
  8
CONTINUOUS1
 48
3.0
100
AcDbLine
 10
992.2487645393967
 20
424.24218035491
 30
0.0
 11
1054.508764539397
 21
424.24218035491
 31
0.0
  0
LINE
  5
325CC
330
1F
100
AcDbEntity
  8
CONTINUOUS1
 48
3.0
100
AcDbLine
 10
992.2487645393967
 20
456.24218035491
 30
0.0
 11
1054.508764539397
 21
456.24218035491
 31
0.0
  0
LINE
  5
325CD
330
1F
100
AcDbEntity
  8
CONTINUOUS1
 48
3.0
100
AcDbLine
 10
1016.118764539395
 20
843.1051803549085
 30
0.0
 11
1020.498764539396
 21
1011.177180354911
 31
0.0
  0
LINE
  5
325CE
330
1F
100
AcDbEntity
  8
CONTINUOUS1
 48
3.0
100
AcDbLine
 10
1037.928764539395
 20
720.74218035491
 30
0.0
 11
1041.958764539395
 21
875.1661803549099
 31
0.0
  0
LINE
  5
325CF
330
1F
100
AcDbEntity
  8
CONTINUOUS1
 48
3.0
100
AcDbLine
 10
1038.228764539396
 20
727.8371803549084
 30
0.0
 11
1021.378764539395
 21
728.3701803549088
 31
0.0
  0
LINE
  5
325D0
330
1F
100
AcDbEntity
  8
CONTINUOUS1
 48
3.0
100
AcDbLine
 10
1038.098764539395
 20
723.8391803549088
 30
0.0
 11
1020.468764539396
 21
724.3971803549088
 31
0.0
  0
LINE
  5
325D1
330
1F
100
AcDbEntity
  8
CONTINUOUS1
 48
3.0
100
AcDbLine
 10
1067.808764539396
 20
843.3491803549099
 30
0.0
 11
1063.368764539395
 21
1011.119180354909
 31
0.0
  0
LINE
  5
325D2
330
1F
100
AcDbEntity
  8
CONTINUOUS1
 48
3.0
100
AcDbLine
 10
1046.048764539395
 20
720.74218035491
 30
0.0
 11
1038.368764539395
 21
1010.914180354908
 31
0.0
  0
LINE
  5
325D3
330
1F
100
AcDbEntity
  8
CONTINUOUS1
 48
3.0
100
AcDbLine
 10
1045.748764539396
 20
727.8321803549093
 30
0.0
 11
1062.098764539395
 21
728.3551803549085
 31
0.0
  0
LINE
  5
325D4
330
1F
100
AcDbEntity
  8
CONTINUOUS1
 48
3.0
100
AcDbLine
 10
1045.878764539396
 20
723.8341803549087
 30
0.0
 11
1062.098764539395
 21
724.353180354909
 31
0.0
  0
LINE
  5
325D5
330
1F
100
AcDbEntity
  8
CONTINUOUS1
 48
3.0
100
AcDbLine
 10
1101.118764539395
 20
1437.17218035491
 30
0.0
 11
1101.398764539396
 21
1404.596180354908
 31
0.0
  0
LINE
  5
325D6
330
1F
100
AcDbEntity
  8
CONTINUOUS1
 48
3.0
100
AcDbLine
 10
969.9887645393964
 20
1500.912180354911
 30
0.0
 11
969.9887645393964
 21
1475.912180354911
 31
0.0
  0
LINE
  5
325D7
330
1F
100
AcDbEntity
  8
CONTINUOUS1
 48
3.0
100
AcDbLine
 10
1113.988764539396
 20
1500.912180354911
 30
0.0
 11
1113.988764539396
 21
1475.912180354911
 31
0.0
  0
LINE
  5
325D8
330
1F
100
AcDbEntity
  8
CONTINUOUS1
 48
3.0
100
AcDbLine
 10
974.9887645393965
 20
1470.91218035491
 30
0.0
 11
1066.488764539396
 21
1470.91218035491
 31
0.0
  0
LINE
  5
325D9
330
1F
100
AcDbEntity
  8
CONTINUOUS1
 48
3.0
100
AcDbLine
 10
979.9887645393964
 20
1510.91218035491
 30
0.0
 11
1103.988764539396
 21
1510.91218035491
 31
0.0
  0
LINE
  5
325DA
330
1F
100
AcDbEntity
  8
CONTINUOUS1
 48
3.0
100
AcDbLine
 10
1100.988764539396
 20
1451.302180354911
 30
0.0
 11
1101.098764539395
 21
1438.832180354909
 31
0.0
  0
LINE
  5
325DB
330
1F
100
AcDbEntity
  8
CONTINUOUS1
 48
3.0
100
AcDbLine
 10
1062.488764539396
 20
1010.914180354908
 30
0.0
 11
1021.488764539396
 21
1010.914180354908
 31
0.0
  0
LINE
  5
325DC
330
1F
100
AcDbEntity
  8
CONTINUOUS1
 48
3.0
100
AcDbLine
 10
1019.488764539396
 20
1012.914180354908
 30
0.0
 11
1019.488764539396
 21
1018.914180354908
 31
0.0
  0
LINE
  5
325DD
330
1F
100
AcDbEntity
  8
CONTINUOUS1
 48
3.0
100
AcDbLine
 10
1029.488764539396
 20
1018.914180354908
 30
0.0
 11
1029.488764539396
 21
1022.914180354908
 31
0.0
  0
LINE
  5
325DE
330
1F
100
AcDbEntity
  8
CONTINUOUS1
 48
3.0
100
AcDbLine
 10
1054.488764539396
 20
1018.914180354908
 30
0.0
 11
1054.488764539396
 21
1022.914180354908
 31
0.0
  0
LINE
  5
325DF
330
1F
100
AcDbEntity
  8
CONTINUOUS1
 48
3.0
100
AcDbLine
 10
1054.488764539396
 20
1018.914180354908
 30
0.0
 11
1019.488764539396
 21
1018.914180354908
 31
0.0
  0
LINE
  5
325E0
330
1F
100
AcDbEntity
  8
CONTINUOUS1
 48
3.0
100
AcDbLine
 10
1054.488764539396
 20
1022.914180354908
 30
0.0
 11
1029.488764539396
 21
1022.914180354908
 31
0.0
  0
LINE
  5
325E1
330
1F
100
AcDbEntity
  8
CONTINUOUS1
 48
3.0
100
AcDbLine
 10
1064.488764539396
 20
1012.914180354908
 30
0.0
 11
1064.488764539396
 21
1018.914180354908
 31
0.0
  0
LINE
  5
325E2
330
1F
100
AcDbEntity
  8
CONTINUOUS1
 48
3.0
100
AcDbLine
 10
1064.488764539396
 20
1018.914180354908
 30
0.0
 11
1054.488764539396
 21
1018.914180354908
 31
0.0
  0
LINE
  5
325E3
330
1F
100
AcDbEntity
  8
CONTINUOUS1
 48
3.0
100
AcDbLine
 10
1066.488764539396
 20
1468.412180354911
 30
0.0
 11
1114.028764539395
 21
1468.412180354911
 31
0.0
  0
LINE
  5
325E4
330
1F
100
AcDbEntity
  8
CONTINUOUS1
 48
3.0
100
AcDbLine
 10
1066.488764539396
 20
1470.91218035491
 30
0.0
 11
1108.988764539396
 21
1470.91218035491
 31
0.0
  0
LINE
  5
325E5
330
1F
100
AcDbEntity
  8
CONTINUOUS1
 48
3.0
100
AcDbLine
 10
1045.988764539396
 20
1022.914180354908
 30
0.0
 11
1045.988764539396
 21
1032.414180354908
 31
0.0
  0
LINE
  5
325E6
330
1F
100
AcDbEntity
  8
CONTINUOUS1
 48
3.0
100
AcDbLine
 10
1037.988764539396
 20
1022.914180354908
 30
0.0
 11
1037.988764539396
 21
1032.414180354908
 31
0.0
  0
LINE
  5
325E7
330
1F
100
AcDbEntity
  8
CONTINUOUS1
 48
3.0
100
AcDbLine
 10
1020.698764539395
 20
1018.914180354908
 30
0.0
 11
1021.068764539396
 21
1033.00818035491
 31
0.0
  0
LINE
  5
325E8
330
1F
100
AcDbEntity
  8
CONTINUOUS1
 48
3.0
100
AcDbLine
 10
1063.168764539396
 20
1018.914180354908
 30
0.0
 11
1062.798764539395
 21
1032.899180354909
 31
0.0
  0
LINE
  5
325E9
330
1F
100
AcDbEntity
  8
CONTINUOUS1
 48
3.0
100
AcDbLine
 10
1021.308764539396
 20
1042.02318035491
 30
0.0
 11
1023.488764539396
 21
1125.90118035491
 31
0.0
  0
LINE
  5
325EA
330
1F
100
AcDbEntity
  8
CONTINUOUS1
 48
3.0
100
AcDbLine
 10
1063.488764539396
 20
1034.414180354908
 30
0.0
 11
1063.488764539396
 21
1040.414180354908
 31
0.0
  0
LINE
  5
325EB
330
1F
100
AcDbEntity
  8
CONTINUOUS1
 48
3.0
100
AcDbLine
 10
1020.488764539396
 20
1034.414180354908
 30
0.0
 11
1020.488764539396
 21
1040.414180354908
 31
0.0
  0
LINE
  5
325EC
330
1F
100
AcDbEntity
  8
CONTINUOUS1
 48
3.0
100
AcDbLine
 10
1062.558764539396
 20
1042.10818035491
 30
0.0
 11
1060.488764539396
 21
1120.09718035491
 31
0.0
  0
LINE
  5
325ED
330
1F
100
AcDbEntity
  8
CONTINUOUS1
 48
3.0
100
AcDbLine
 10
1022.488764539396
 20
1042.414180354908
 30
0.0
 11
1061.488764539396
 21
1042.414180354908
 31
0.0
  0
LINE
  5
325EE
330
1F
100
AcDbEntity
  8
CONTINUOUS1
 48
3.0
100
AcDbLine
 10
1022.488764539396
 20
1032.414180354908
 30
0.0
 11
1061.488764539396
 21
1032.414180354908
 31
0.0
  0
LINE
  5
325EF
330
1F
100
AcDbEntity
  8
PHANTOM
 48
3.0
100
AcDbLine
 10
798.8287645393966
 20
390.24218035491
 30
0.0
 11
1194.098764539395
 21
390.24218035491
 31
0.0
  0
LINE
  5
325F0
330
1F
100
AcDbEntity
  8
CONTINUOUS1
 48
3.0
100
AcDbLine
 10
1005.378764539395
 20
695.74218035491
 30
0.0
 11
1057.878764539395
 21
695.74218035491
 31
0.0
  0
LINE
  5
325F1
330
1F
100
AcDbEntity
  8
CONTINUOUS1
 48
3.0
100
AcDbLine
 10
1096.878764539396
 20
443.1289803549093
 30
0.0
 11
1101.878764539395
 21
446.0156803549103
 31
0.0
  0
LINE
  5
325F2
330
1F
100
AcDbEntity
  8
CONTINUOUS1
 48
3.0
100
AcDbLine
 10
1106.878764539396
 20
443.1289803549093
 30
0.0
 11
1106.878764539396
 21
437.3554303549094
 31
0.0
  0
LINE
  5
325F3
330
1F
100
AcDbEntity
  8
CONTINUOUS1
 48
3.0
100
AcDbLine
 10
1132.098764539395
 20
670.24218035491
 30
0.0
 11
1179.098764539395
 21
670.24218035491
 31
0.0
  0
LINE
  5
325F4
330
1F
100
AcDbEntity
  8
CONTINUOUS1
 48
3.0
100
AcDbLine
 10
1096.878764539396
 20
437.3554303549094
 30
0.0
 11
1101.878764539395
 21
434.4686803549088
 31
0.0
  0
LINE
  5
325F5
330
1F
100
AcDbEntity
  8
CONTINUOUS1
 48
3.0
100
AcDbLine
 10
1017.598764539395
 20
424.24218035491
 30
0.0
 11
1017.598764539395
 21
396.74218035491
 31
0.0
  0
LINE
  5
325F6
330
1F
100
AcDbEntity
  8
CONTINUOUS1
 48
3.0
100
AcDbLine
 10
939.8787645393959
 20
437.3554303549094
 30
0.0
 11
944.8787645393959
 21
434.4686803549088
 31
0.0
  0
LINE
  5
325F7
330
1F
100
AcDbEntity
  8
CONTINUOUS1
 48
3.0
100
AcDbLine
 10
949.8787645393958
 20
443.1289803549093
 30
0.0
 11
949.8787645393958
 21
437.3554303549094
 31
0.0
  0
LINE
  5
325F8
330
1F
100
AcDbEntity
  8
CONTINUOUS1
 48
3.0
100
AcDbLine
 10
1123.678764539395
 20
395.24218035491
 30
0.0
 11
1179.098764539395
 21
395.24218035491
 31
0.0
  0
LINE
  5
325F9
330
1F
100
AcDbEntity
  8
CONTINUOUS1
 48
3.0
100
AcDbLine
 10
939.8787645393959
 20
443.1289803549093
 30
0.0
 11
944.8787645393959
 21
446.0156803549103
 31
0.0
  0
LINE
  5
325FA
330
1F
100
AcDbEntity
  8
CONTINUOUS1
 48
3.0
100
AcDbLine
 10
944.8787645393959
 20
446.0156803549103
 30
0.0
 11
949.8787645393958
 21
443.1289803549093
 31
0.0
  0
LINE
  5
325FB
330
1F
100
AcDbEntity
  8
CONTINUOUS1
 48
3.0
100
AcDbLine
 10
939.8787645393959
 20
443.1289803549093
 30
0.0
 11
939.8787645393959
 21
437.3554303549094
 31
0.0
  0
LINE
  5
325FC
330
1F
100
AcDbEntity
  8
CONTINUOUS1
 48
3.0
100
AcDbLine
 10
1101.878764539395
 20
434.4686803549088
 30
0.0
 11
1106.878764539396
 21
437.3554303549094
 31
0.0
  0
LINE
  5
325FD
330
1F
100
AcDbEntity
  8
CONTINUOUS1
 48
3.0
100
AcDbLine
 10
968.3787645393959
 20
729.74218035491
 30
0.0
 11
1005.378764539395
 21
729.74218035491
 31
0.0
  0
LINE
  5
325FE
330
1F
100
AcDbEntity
  8
CONTINUOUS1
 48
3.0
100
AcDbLine
 10
969.9587645393958
 20
1470.91218035491
 30
0.0
 11
1017.488764539396
 21
1470.91218035491
 31
0.0
  0
LINE
  5
325FF
330
1F
100
AcDbEntity
  8
CONTINUOUS1
 48
3.0
100
AcDbLine
 10
969.9587645393958
 20
1464.412180354911
 30
0.0
 11
1066.488764539396
 21
1464.412180354911
 31
0.0
  0
LINE
  5
32600
330
1F
100
AcDbEntity
  8
CONTINUOUS1
 48
3.0
100
AcDbLine
 10
1023.488764539396
 20
1438.41218035491
 30
0.0
 11
1023.488764539396
 21
1042.414180354908
 31
0.0
  0
LINE
  5
32601
330
1F
100
AcDbEntity
  8
CONTINUOUS1
 48
3.0
100
AcDbLine
 10
982.8787645393958
 20
1438.41218035491
 30
0.0
 11
1066.488764539396
 21
1438.41218035491
 31
0.0
  0
LINE
  5
32602
330
1F
100
AcDbEntity
  8
CONTINUOUS1
 48
3.0
100
AcDbLine
 10
1060.488764539396
 20
1438.41218035491
 30
0.0
 11
1060.488764539396
 21
1042.414180354908
 31
0.0
  0
LINE
  5
32603
330
1F
100
AcDbEntity
  8
CONTINUOUS1
 48
3.0
100
AcDbLine
 10
969.9587645393958
 20
1468.412180354911
 30
0.0
 11
1066.488764539396
 21
1468.412180354911
 31
0.0
  0
LINE
  5
3269B
330
1F
100
AcDbEntity
  8
CONTINUOUS1
 48
3.0
100
AcDbLine
 10
968.3787645393959
 20
729.74218035491
 30
0.0
 11
993.3787645393959
 21
729.74218035491
 31
0.0
  0
LINE
  5
3269C
330
1F
100
AcDbEntity
  8
CONTINUOUS1
 48
3.0
100
AcDbLine
 10
998.3787645393958
 20
721.74218035491
 30
0.0
 11
998.3787645393958
 21
498.24218035491
 31
0.0
  0
LINE
  5
3269D
330
1F
100
AcDbEntity
  8
CONTINUOUS1
 48
3.0
100
AcDbLine
 10
967.0787645393966
 20
493.24218035491
 30
0.0
 11
993.3787645393959
 21
493.24218035491
 31
0.0
  0
LINE
  5
3269E
330
1F
100
AcDbEntity
  8
CONTINUOUS1
 48
3.0
100
AcDbLine
 10
967.0787645393966
 20
726.74218035491
 30
0.0
 11
967.0787645393966
 21
493.24218035491
 31
0.0
  0
LINE
  5
32773
330
1F
100
AcDbEntity
  8
CONTINUOUS1
 48
3.0
100
AcDbLine
 10
967.0787645393966
 20
726.74218035491
 30
0.0
 11
968.3787645393959
 21
726.74218035491
 31
0.0
  0
LINE
  5
32774
330
1F
100
AcDbEntity
  8
CONTINUOUS1
 48
3.0
100
AcDbLine
 10
968.3787645393959
 20
726.74218035491
 30
0.0
 11
993.3787645393959
 21
726.74218035491
 31
0.0
  0
LINE
  5
3279B
330
1F
100
AcDbEntity
  8
CONTINUOUS1
 48
3.0
100
AcDbLine
 10
1033.098764539395
 20
390.24218035491
 30
0.0
 11
1165.098764539395
 21
390.24218035491
 31
0.0
  0
LINE
  5
3279C
330
1F
100
AcDbEntity
  8
CONTINUOUS1
 48
3.0
100
AcDbLine
 10
1033.098764539395
 20
390.24218035491
 30
0.0
 11
1033.098764539395
 21
391.74218035491
 31
0.0
  0
LINE
  5
3279D
330
1F
100
AcDbEntity
  8
CONTINUOUS1
 48
3.0
100
AcDbLine
 10
1165.098764539395
 20
390.24218035491
 30
0.0
 11
1165.098764539395
 21
391.74218035491
 31
0.0
  0
LINE
  5
327A0
330
1F
100
AcDbEntity
  8
CONTINUOUS1
 48
3.0
100
AcDbLine
 10
1033.098764539395
 20
391.74218035491
 30
0.0
 11
1089.723518758252
 21
391.74218035491
 31
0.0
  0
ARC
  5
327D8
330
1F
100
AcDbEntity
  8
CONTINUOUS1
 48
3.0
100
AcDbCircle
 10
1099.058963124515
 20
1383.30518035491
 30
0.0
 40
2.999999999997345
100
AcDbArc
 50
180.5000000000175
 51
270.4999999998612
  0
ARC
  5
327D9
330
1F
100
AcDbEntity
  8
CONTINUOUS1
 48
3.0
100
AcDbCircle
 10
968.0649378484568
 20
1058.439736069162
 30
0.0
 40
4.999999999998252
100
AcDbArc
 50
89.4999768006245
 51
179.4999586182115
  0
ARC
  5
327DA
330
1F
100
AcDbEntity
  8
CONTINUOUS1
 48
3.0
100
AcDbCircle
 10
967.1922104256454
 20
958.4433552367723
 30
0.0
 40
4.999999999994089
100
AcDbArc
 50
179.4999586182115
 51
269.4999768006245
  0
ARC
  5
327F0
330
1F
100
AcDbEntity
  8
CONTINUOUS1
 48
3.0
100
AcDbCircle
 10
1113.988764539405
 20
1451.412180354911
 30
0.0
 40
4.249999999998561
100
AcDbArc
 50
303.4359999999721
 51
356.5640000000025
  0
ARC
  5
327F1
330
1F
100
AcDbEntity
  8
CONTINUOUS1
 48
3.0
100
AcDbCircle
 10
1113.988764539405
 20
1451.412180354911
 30
0.0
 40
4.250000000003481
100
AcDbArc
 50
243.4359999999345
 51
296.5639999999489
  0
ARC
  5
327F2
330
1F
100
AcDbEntity
  8
CONTINUOUS1
 48
3.0
100
AcDbCircle
 10
1113.988764539405
 20
1451.412180354911
 30
0.0
 40
4.250000000000354
100
AcDbArc
 50
183.4359999999973
 51
236.563999999998
  0
ARC
  5
327F3
330
1F
100
AcDbEntity
  8
CONTINUOUS1
 48
3.0
100
AcDbCircle
 10
1113.988764539405
 20
1451.412180354911
 30
0.0
 40
4.250000000002054
100
AcDbArc
 50
123.4360000000294
 51
176.5640000000026
  0
ARC
  5
327F4
330
1F
100
AcDbEntity
  8
CONTINUOUS1
 48
3.0
100
AcDbCircle
 10
1113.988764539405
 20
1451.412180354911
 30
0.0
 40
4.249999999993427
100
AcDbArc
 50
3.435670000025074
 51
56.56430000002131
  0
ARC
  5
327F5
330
1F
100
AcDbEntity
  8
CONTINUOUS1
 48
3.0
100
AcDbCircle
 10
1113.988764539405
 20
1451.412180354911
 30
0.0
 40
4.249999999998389
100
AcDbArc
 50
63.43570000003086
 51
116.5640000000654
  0
ARC
  5
327F6
330
1F
100
AcDbEntity
  8
CONTINUOUS1
 48
3.0
100
AcDbCircle
 10
969.9887645393964
 20
1451.412180354911
 30
0.0
 40
4.250000000003572
100
AcDbArc
 50
303.4360000000019
 51
356.5640000000025
  0
ARC
  5
327F7
330
1F
100
AcDbEntity
  8
CONTINUOUS1
 48
3.0
100
AcDbCircle
 10
969.9887645393964
 20
1451.412180354911
 30
0.0
 40
4.249999999999413
100
AcDbArc
 50
243.4360000000511
 51
296.5640000000653
  0
ARC
  5
327F8
330
1F
100
AcDbEntity
  8
CONTINUOUS1
 48
3.0
100
AcDbCircle
 10
969.9887645393964
 20
1451.412180354911
 30
0.0
 40
4.249999999991275
100
AcDbArc
 50
183.4359999999973
 51
236.5640000000278
  0
ARC
  5
327F9
330
1F
100
AcDbEntity
  8
CONTINUOUS1
 48
3.0
100
AcDbCircle
 10
969.9887645393964
 20
1451.412180354911
 30
0.0
 40
4.249999999997043
100
AcDbArc
 50
123.4359999999721
 51
176.5640000000026
  0
ARC
  5
327FA
330
1F
100
AcDbEntity
  8
CONTINUOUS1
 48
3.0
100
AcDbCircle
 10
969.9887645393964
 20
1451.412180354911
 30
0.0
 40
4.250000000002506
100
AcDbArc
 50
3.43566999997296
 51
56.56429999999017
  0
ARC
  5
327FB
330
1F
100
AcDbEntity
  8
CONTINUOUS1
 48
3.0
100
AcDbCircle
 10
969.9887645393964
 20
1451.412180354911
 30
0.0
 40
4.250000000002457
100
AcDbArc
 50
63.43569999991434
 51
116.5639999999489
  0
ARC
  5
3282F
330
1F
100
AcDbEntity
  8
CONTINUOUS1
 48
3.0
100
AcDbCircle
 10
986.8787645393959
 20
647.1801803549092
 30
0.0
 40
86.56250000000062
100
AcDbArc
 50
78.4716000000179
 51
101.5280000000005
  0
ARC
  5
32830
330
1F
100
AcDbEntity
  8
CONTINUOUS1
 48
3.0
100
AcDbCircle
 10
969.8787645393959
 20
730.5261803549087
 30
0.0
 40
1.500000000000063
100
AcDbArc
 50
101.5279999998992
 51
180.0
  0
ARC
  5
32834
330
1F
100
AcDbEntity
  8
CONTINUOUS1
 48
3.0
100
AcDbCircle
 10
1003.878764539396
 20
730.5261803549087
 30
0.0
 40
1.5
100
AcDbArc
 50
0.0
 51
78.4715999997001
  0
ARC
  5
32842
330
1F
100
AcDbEntity
  8
CONTINUOUS1
 48
3.0
100
AcDbCircle
 10
1165.098764539395
 20
656.24218035491
 30
0.0
 40
10.0
100
AcDbArc
 50
0.0
 51
90.0
  0
ARC
  5
32873
330
1F
100
AcDbEntity
  8
CONTINUOUS1
 48
3.0
100
AcDbCircle
 10
937.6987645393956
 20
783.6821803549087
 30
0.0
 40
9.999999999993651
100
AcDbArc
 50
234.5210000000176
 51
269.5000000000344
  0
ARC
  5
32874
330
1F
100
AcDbEntity
  8
CONTINUOUS1
 48
3.0
100
AcDbCircle
 10
945.4487645393955
 20
1446.64218035491
 30
0.0
 40
5.000000000009526
100
AcDbArc
 50
359.4999999999824
 51
89.49999999993027
  0
ARC
  5
32875
330
1F
100
AcDbEntity
  8
CONTINUOUS1
 48
3.0
100
AcDbCircle
 10
920.4087645393965
 20
1441.862180354909
 30
0.0
 40
10.0000000000018
100
AcDbArc
 50
89.49999999993027
 51
179.4999999999824
  0
ARC
  5
32876
330
1F
100
AcDbEntity
  8
CONTINUOUS1
 48
3.0
100
AcDbCircle
 10
914.8987645393964
 20
811.0691803549093
 30
0.0
 40
9.999999999999044
100
AcDbArc
 50
179.4999999999824
 51
205.030000000016
  0
ARC
  5
32877
330
1F
100
AcDbEntity
  8
CONTINUOUS1
 48
3.0
100
AcDbCircle
 10
939.6187645393956
 20
778.6651803549089
 30
0.0
 40
4.99999999999949
100
AcDbArc
 50
269.5000000000344
 51
359.4999999999824
  0
ARC
  5
32878
330
1F
100
AcDbEntity
  8
CONTINUOUS1
 48
3.0
100
AcDbCircle
 10
978.3287645393967
 20
840.6861803549114
 30
0.0
 40
79.999999999998
100
AcDbArc
 50
205.030000000016
 51
234.5209999999864
  0
ARC
  5
32879
330
1F
100
AcDbEntity
  8
CONTINUOUS1
 48
3.0
100
AcDbCircle
 10
986.8787645393959
 20
808.2421803549101
 30
0.0
 40
45.50000000000117
100
AcDbArc
 50
253.500000000043
 51
44.49999999999403
  0
ARC
  5
3287A
330
1F
100
AcDbEntity
  8
CONTINUOUS1
 48
3.0
100
AcDbCircle
 10
980.5987645393953
 20
890.7581803549105
 30
0.0
 40
3.000000000008251
100
AcDbArc
 50
359.5000000000345
 51
89.49999999993027
  0
ARC
  5
3287B
330
1F
100
AcDbEntity
  8
CONTINUOUS1
 48
3.0
100
AcDbCircle
 10
1013.578764539396
 20
888.7851803549096
 30
0.0
 40
29.99999999999528
100
AcDbArc
 50
179.4999999999824
 51
224.499999999994
  0
ARC
  5
3287C
330
1F
100
AcDbEntity
  8
CONTINUOUS1
 48
3.0
100
AcDbCircle
 10
984.8987645393963
 20
1383.30518035491
 30
0.0
 40
3.000000000000026
100
AcDbArc
 50
269.5000000001387
 51
359.4999999999824
  0
ARC
  5
3287D
330
1F
100
AcDbEntity
  8
CONTINUOUS1
 48
3.0
100
AcDbCircle
 10
977.9987645393967
 20
1395.275180354908
 30
0.0
 40
10.00000000000811
100
AcDbArc
 50
359.5000000000345
 51
79.49999999991836
  0
ARC
  5
3287E
330
1F
100
AcDbEntity
  8
CONTINUOUS1
 48
3.0
100
AcDbCircle
 10
969.9887645393964
 20
1451.42218035491
 30
0.0
 40
13.00000000000547
100
AcDbArc
 50
359.4999999999824
 51
179.4999999999824
  0
ARC
  5
3287F
330
1F
100
AcDbEntity
  8
CONTINUOUS1
 48
3.0
100
AcDbCircle
 10
1058.878764539396
 20
708.24218035491
 30
0.0
 40
12.5
100
AcDbArc
 50
270.0
 51
284.9470000000738
  0
ARC
  5
32880
330
1F
100
AcDbEntity
  8
CONTINUOUS1
 48
3.0
100
AcDbCircle
 10
974.9887645393965
 20
1475.912180354911
 30
0.0
 40
5.0
100
AcDbArc
 50
180.0
 51
270.0
  0
ARC
  5
32881
330
1F
100
AcDbEntity
  8
CONTINUOUS1
 48
3.0
100
AcDbCircle
 10
1103.988764539396
 20
1500.912180354911
 30
0.0
 40
10.0
100
AcDbArc
 50
0.0
 51
90.0
  0
ARC
  5
32882
330
1F
100
AcDbEntity
  8
CONTINUOUS1
 48
3.0
100
AcDbCircle
 10
979.9887645393964
 20
1500.912180354911
 30
0.0
 40
10.0
100
AcDbArc
 50
90.0
 51
180.0
  0
ARC
  5
32883
330
1F
100
AcDbEntity
  8
CONTINUOUS1
 48
3.0
100
AcDbCircle
 10
1108.988764539396
 20
1475.912180354911
 30
0.0
 40
5.0
100
AcDbArc
 50
270.0
 51
0.0
  0
ARC
  5
32884
330
1F
100
AcDbEntity
  8
CONTINUOUS1
 48
3.0
100
AcDbCircle
 10
1062.488764539396
 20
1012.914180354908
 30
0.0
 40
2.0
100
AcDbArc
 50
270.0
 51
0.0
  0
ARC
  5
32885
330
1F
100
AcDbEntity
  8
CONTINUOUS1
 48
3.0
100
AcDbCircle
 10
1021.488764539396
 20
1012.914180354908
 30
0.0
 40
2.0
100
AcDbArc
 50
180.0
 51
270.0
  0
ARC
  5
32886
330
1F
100
AcDbEntity
  8
CONTINUOUS1
 48
3.0
100
AcDbCircle
 10
1061.488764539396
 20
1040.414180354908
 30
0.0
 40
2.0
100
AcDbArc
 50
0.0
 51
90.0
  0
ARC
  5
32887
330
1F
100
AcDbEntity
  8
CONTINUOUS1
 48
3.0
100
AcDbCircle
 10
1022.488764539396
 20
1034.414180354908
 30
0.0
 40
2.0
100
AcDbArc
 50
180.0
 51
270.0
  0
ARC
  5
32888
330
1F
100
AcDbEntity
  8
CONTINUOUS1
 48
3.0
100
AcDbCircle
 10
1022.488764539396
 20
1040.414180354908
 30
0.0
 40
2.0
100
AcDbArc
 50
90.0
 51
180.0
  0
ARC
  5
32889
330
1F
100
AcDbEntity
  8
CONTINUOUS1
 48
3.0
100
AcDbCircle
 10
1061.488764539396
 20
1034.414180354908
 30
0.0
 40
2.0
100
AcDbArc
 50
270.0
 51
0.0
  0
ARC
  5
3288A
330
1F
100
AcDbEntity
  8
CONTINUOUS1
 48
3.0
100
AcDbCircle
 10
986.8787645393959
 20
734.24218035491
 30
0.0
 40
35.0
100
AcDbArc
 50
180.0
 51
235.5480000000033
  0
ARC
  5
3288B
330
1F
100
AcDbEntity
  8
CONTINUOUS1
 48
3.0
100
AcDbCircle
 10
1057.878764539395
 20
708.24218035491
 30
0.0
 40
12.49999999999892
100
AcDbArc
 50
70.24959999997475
 51
289.749999999978
  0
ARC
  5
3288C
330
1F
100
AcDbEntity
  8
CONTINUOUS1
 48
3.0
100
AcDbCircle
 10
1113.988764539396
 20
1451.412180354911
 30
0.0
 40
17.0000000000009
100
AcDbArc
 50
270.0
 51
90.11339999998806
  0
ARC
  5
3288D
330
1F
100
AcDbEntity
  8
CONTINUOUS1
 48
3.0
100
AcDbCircle
 10
969.9887645394055
 20
1451.412180354911
 30
0.0
 40
16.99999999999899
100
AcDbArc
 50
89.88660000001193
 51
270.0
  0
ARC
  5
3288E
330
1F
100
AcDbEntity
  8
CONTINUOUS1
 48
3.0
100
AcDbCircle
 10
969.9887645393964
 20
1451.412180354911
 30
0.0
 40
19.49999999999931
100
AcDbArc
 50
89.90110000002687
 51
270.0
  0
ARC
  5
3288F
330
1F
100
AcDbEntity
  8
CONTINUOUS1
 48
3.0
100
AcDbCircle
 10
1113.988764539405
 20
1451.412180354911
 30
0.0
 40
19.5000000000009
100
AcDbArc
 50
270.0
 51
90.09889999997312
  0
ARC
  5
32890
330
1F
100
AcDbEntity
  8
CONTINUOUS1
 48
3.0
100
AcDbCircle
 10
1138.538764539395
 20
1446.632180354908
 30
0.0
 40
5.000000000000399
100
AcDbArc
 50
90.49999999996552
 51
180.5000000000175
  0
ARC
  5
32891
330
1F
100
AcDbEntity
  8
CONTINUOUS1
 48
3.0
100
AcDbCircle
 10
1105.658764539396
 20
840.6741803549088
 30
0.0
 40
80.00000000000085
100
AcDbArc
 50
305.4790000000135
 51
334.9700000000283
  0
ARC
  5
32892
330
1F
100
AcDbEntity
  8
CONTINUOUS1
 48
3.0
100
AcDbCircle
 10
1070.398764539396
 20
888.7851803549096
 30
0.0
 40
30.00000000000287
100
AcDbArc
 50
315.5000000000059
 51
0.5000000000176009
  0
ARC
  5
32893
330
1F
100
AcDbEntity
  8
CONTINUOUS1
 48
3.0
100
AcDbCircle
 10
1105.978764539396
 20
1395.275180354908
 30
0.0
 40
10.00000000000178
100
AcDbArc
 50
100.4999999999788
 51
180.5000000000175
  0
ARC
  5
32894
330
1F
100
AcDbEntity
  8
CONTINUOUS1
 48
3.0
100
AcDbCircle
 10
1103.378764539395
 20
890.7581803549105
 30
0.0
 40
2.999999999999116
100
AcDbArc
 50
90.49999999986125
 51
180.4999999999655
  0
ARC
  5
32895
330
1F
100
AcDbEntity
  8
CONTINUOUS1
 48
3.0
100
AcDbCircle
 10
1097.098764539395
 20
808.2421803549101
 30
0.0
 40
45.49999999999522
100
AcDbArc
 50
135.5000000000059
 51
286.4999999999569
  0
ARC
  5
32896
330
1F
100
AcDbEntity
  8
CONTINUOUS1
 48
3.0
100
AcDbCircle
 10
1113.988764539405
 20
1451.412180354911
 30
0.0
 40
12.99999999999635
100
AcDbArc
 50
0.4999999999654926
 51
180.5000000000175
  0
ARC
  5
32897
330
1F
100
AcDbEntity
  8
CONTINUOUS1
 48
3.0
100
AcDbCircle
 10
1144.358764539395
 20
778.6531803549092
 30
0.0
 40
4.999999999998596
100
AcDbArc
 50
180.4999999999655
 51
270.5000000000697
  0
ARC
  5
32898
330
1F
100
AcDbEntity
  8
CONTINUOUS1
 48
3.0
100
AcDbCircle
 10
1146.278764539395
 20
783.670180354909
 30
0.0
 40
10.0
100
AcDbArc
 50
270.5000000000697
 51
305.4790000000135
  0
ARC
  5
32899
330
1F
100
AcDbEntity
  8
CONTINUOUS1
 48
3.0
100
AcDbCircle
 10
1169.078764539396
 20
811.0571803549087
 30
0.0
 40
10.00000000000186
100
AcDbArc
 50
334.9700000000283
 51
0.5000000000176009
  0
ARC
  5
3289A
330
1F
100
AcDbEntity
  8
CONTINUOUS1
 48
3.0
100
AcDbCircle
 10
1163.578764539396
 20
1441.842180354909
 30
0.0
 40
10.00000000000814
100
AcDbArc
 50
0.5000000000176009
 51
90.49999999996552
  0
ARC
  5
3289B
330
1F
100
AcDbEntity
  8
CONTINUOUS1
 48
3.0
100
AcDbCircle
 10
1165.098764539395
 20
406.74218035491
 30
0.0
 40
10.0
100
AcDbArc
 50
270.0
 51
0.0
  0
ARC
  5
3289C
330
1F
100
AcDbEntity
  8
CONTINUOUS1
 48
3.0
100
AcDbCircle
 10
986.8787645393959
 20
734.24218035491
 30
0.0
 40
35.00000000000246
100
AcDbArc
 50
301.9089999999737
 51
0.0
  0
ARC
  5
328DB
330
1F
100
AcDbEntity
  8
CONTINUOUS1
 48
3.0
100
AcDbCircle
 10
993.3787645393959
 20
498.24218035491
 30
0.0
 40
5.0
100
AcDbArc
 50
270.0
 51
0.0
  0
ARC
  5
328DC
330
1F
100
AcDbEntity
  8
CONTINUOUS1
 48
3.0
100
AcDbCircle
 10
993.3787645393959
 20
721.74218035491
 30
0.0
 40
5.0
100
AcDbArc
 50
0.0
 51
90.0
  0
CIRCLE
  5
3291E
330
1F
100
AcDbEntity
  8
CONTINUOUS1
 48
3.0
100
AcDbCircle
 10
1101.878764539395
 20
440.24218035491
 30
0.0
 40
19.04999999999927
  0
CIRCLE
  5
3291F
330
1F
100
AcDbEntity
  8
CONTINUOUS1
 48
3.0
100
AcDbCircle
 10
1113.988764539405
 20
1451.412180354911
 30
0.0
 40
5.949999999989813
  0
CIRCLE
  5
32920
330
1F
100
AcDbEntity
  8
CONTINUOUS1
 48
3.0
100
AcDbCircle
 10
1113.988764539405
 20
1451.412180354911
 30
0.0
 40
8.749999999990905
  0
CIRCLE
  5
32921
330
1F
100
AcDbEntity
  8
CONTINUOUS1
 48
3.0
100
AcDbCircle
 10
1113.988764539405
 20
1451.412180354911
 30
0.0
 40
3.949999999989813
  0
CIRCLE
  5
32922
330
1F
100
AcDbEntity
  8
CONTINUOUS1
 48
3.0
100
AcDbCircle
 10
969.9887645393964
 20
1451.412180354911
 30
0.0
 40
5.949999999998908
  0
CIRCLE
  5
32923
330
1F
100
AcDbEntity
  8
CONTINUOUS1
 48
3.0
100
AcDbCircle
 10
969.9887645393964
 20
1451.412180354911
 30
0.0
 40
8.75
  0
CIRCLE
  5
3292A
330
1F
100
AcDbEntity
  8
CONTINUOUS1
 48
3.0
100
AcDbCircle
 10
969.9887645393964
 20
1451.412180354911
 30
0.0
 40
3.949999999998908
  0
CIRCLE
  5
3292D
330
1F
100
AcDbEntity
  8
CONTINUOUS1
 48
3.0
100
AcDbCircle
 10
1101.878764539395
 20
440.24218035491
 30
0.0
 40
16.04999999999927
  0
CIRCLE
  5
3292F
330
1F
100
AcDbEntity
  8
CONTINUOUS1
 48
3.0
100
AcDbCircle
 10
1101.878764539395
 20
440.24218035491
 30
0.0
 40
34.0
  0
CIRCLE
  5
32930
330
1F
100
AcDbEntity
  8
CONTINUOUS1
 48
3.0
100
AcDbCircle
 10
1101.878764539395
 20
440.24218035491
 30
0.0
 40
50.0
  0
CIRCLE
  5
32931
330
1F
100
AcDbEntity
  8
CONTINUOUS1
 48
3.0
100
AcDbCircle
 10
1101.878764539395
 20
440.24218035491
 30
0.0
 40
39.0
  0
CIRCLE
  5
32932
330
1F
100
AcDbEntity
  8
CONTINUOUS1
 48
3.0
100
AcDbCircle
 10
944.8787645393959
 20
440.24218035491
 30
0.0
 40
19.04999999999927
  0
CIRCLE
  5
32933
330
1F
100
AcDbEntity
  8
CONTINUOUS1
 48
3.0
100
AcDbCircle
 10
944.8787645393959
 20
440.24218035491
 30
0.0
 40
16.04999999999927
  0
CIRCLE
  5
32934
330
1F
100
AcDbEntity
  8
CONTINUOUS1
 48
3.0
100
AcDbCircle
 10
1101.878764539395
 20
440.24218035491
 30
0.0
 40
9.0
  0
CIRCLE
  5
32935
330
1F
100
AcDbEntity
  8
CONTINUOUS1
 48
3.0
100
AcDbCircle
 10
944.8787645393959
 20
440.24218035491
 30
0.0
 40
39.0
  0
CIRCLE
  5
32936
330
1F
100
AcDbEntity
  8
CONTINUOUS1
 48
3.0
100
AcDbCircle
 10
944.8787645393959
 20
440.24218035491
 30
0.0
 40
34.0
  0
CIRCLE
  5
32937
330
1F
100
AcDbEntity
  8
CONTINUOUS1
 48
3.0
100
AcDbCircle
 10
944.8787645393959
 20
440.24218035491
 30
0.0
 40
50.0
  0
CIRCLE
  5
32944
330
1F
100
AcDbEntity
  8
CONTINUOUS1
 48
3.0
100
AcDbCircle
 10
1040.598764539395
 20
645.24218035491
 30
0.0
 40
3.0
  0
CIRCLE
  5
32945
330
1F
100
AcDbEntity
  8
CONTINUOUS1
 48
3.0
100
AcDbCircle
 10
1040.598764539395
 20
465.24218035491
 30
0.0
 40
3.0
  0
CIRCLE
  5
32946
330
1F
100
AcDbEntity
  8
CONTINUOUS1
 48
3.0
100
AcDbCircle
 10
1140.598764539395
 20
645.24218035491
 30
0.0
 40
3.0
  0
CIRCLE
  5
3294B
330
1F
100
AcDbEntity
  8
CONTINUOUS1
 48
3.0
100
AcDbCircle
 10
1040.598764539395
 20
465.24218035491
 30
0.0
 40
3.0
  0
CIRCLE
  5
3294C
330
1F
100
AcDbEntity
  8
CONTINUOUS1
 48
3.0
100
AcDbCircle
 10
1040.598764539395
 20
645.24218035491
 30
0.0
 40
3.0
  0
CIRCLE
  5
3294D
330
1F
100
AcDbEntity
  8
CONTINUOUS1
 48
3.0
100
AcDbCircle
 10
1140.598764539395
 20
645.24218035491
 30
0.0
 40
3.0
  0
CIRCLE
  5
3294E
330
1F
100
AcDbEntity
  8
CONTINUOUS1
 48
3.0
100
AcDbCircle
 10
986.8787645393959
 20
508.24218035491
 30
0.0
 40
3.0
  0
CIRCLE
  5
3294F
330
1F
100
AcDbEntity
  8
CONTINUOUS1
 48
3.0
100
AcDbCircle
 10
986.8787645393959
 20
654.74218035491
 30
0.0
 40
3.0
  0
CIRCLE
  5
32950
330
1F
100
AcDbEntity
  8
CONTINUOUS1
 48
3.0
100
AcDbCircle
 10
1101.878764539395
 20
440.24218035491
 30
0.0
 40
12.0
  0
CIRCLE
  5
32951
330
1F
100
AcDbEntity
  8
CONTINUOUS1
 48
3.0
100
AcDbCircle
 10
944.8787645393959
 20
440.24218035491
 30
0.0
 40
12.0
  0
CIRCLE
  5
32952
330
1F
100
AcDbEntity
  8
CONTINUOUS1
 48
3.0
100
AcDbCircle
 10
944.8787645393959
 20
440.24218035491
 30
0.0
 40
9.0
  0
CIRCLE
  5
32956
330
1F
100
AcDbEntity
  8
CONTINUOUS1
 48
3.0
100
AcDbCircle
 10
986.8787645393959
 20
508.24218035491
 30
0.0
 40
4.0
  0
CIRCLE
  5
32957
330
1F
100
AcDbEntity
  8
CONTINUOUS1
 48
3.0
100
AcDbCircle
 10
986.8787645393959
 20
654.74218035491
 30
0.0
 40
4.0
  0
LINE
  5
32C8B
330
1F
100
AcDbEntity
  8
CONTINUOUS1
 48
3.0
100
AcDbLine
 10
1114.034010320539
 20
391.74218035491
 30
0.0
 11
1165.098764539395
 21
391.74218035491
 31
0.0
  0
LWPOLYLINE
  5
32CBE
330
1F
100
AcDbEntity
  8
Defpoints
100
AcDbPolyline
 90
        4
 70
     1
 43
0.0
 10
0.0
 20
2870.0
 10
2000.0
 20
2870.0
 10
2000.0
 20
0.0
 10
0.0
 20
0.0
  0
LINE
  5
32CBF
330
1F
100
AcDbEntity
  8
CONTINUOUS1
 48
3.0
100
AcDbLine
 10
1113.988764539396
 20
2404.8974984176
 30
0.0
 11
1113.988764539396
 21
1844.8974984176
 31
0.0
  0
LINE
  5
32CC0
330
1F
100
AcDbEntity
  8
CONTINUOUS1
 48
3.0
100
AcDbLine
 10
969.9887645393964
 20
2404.8974984176
 30
0.0
 11
969.9887645393964
 21
1844.8974984176
 31
0.0
  0
LINE
  5
32CC1
330
1F
100
AcDbEntity
  8
CONTINUOUS1
 48
3.0
100
AcDbLine
 10
1113.988764539396
 20
2404.8974984176
 30
0.0
 11
1113.988764539396
 21
1844.8974984176
 31
0.0
  0
ARC
  5
32CC8
330
1F
100
AcDbEntity
  8
CONTINUOUS1
 48
3.0
100
AcDbCircle
 10
989.9887645393965
 20
2404.8974984176
 30
0.0
 40
20.0
100
AcDbArc
 50
90.0
 51
180.0
  0
LINE
  5
32CCD
330
1F
100
AcDbEntity
  8
CONTINUOUS1
 48
3.0
100
AcDbLine
 10
1066.488774539396
 20
2424.8974984176
 30
0.0
 11
1093.988764539396
 21
2424.8974984176
 31
0.0
  0
LINE
  5
32CCE
330
1F
100
AcDbEntity
  8
CONTINUOUS1
 48
3.0
100
AcDbLine
 10
989.9887645393965
 20
2424.8974984176
 30
0.0
 11
1066.488774539396
 21
2424.8974984176
 31
0.0
  0
ARC
  5
32CD0
330
1F
100
AcDbEntity
  8
CONTINUOUS1
 48
3.0
100
AcDbCircle
 10
1093.988764539396
 20
2404.8974984176
 30
0.0
 40
20.0
100
AcDbArc
 50
0.0
 51
90.0
  0
LINE
  5
32CD3
330
1F
100
AcDbEntity
  8
CONTINUOUS1
 48
3.0
100
AcDbLine
 10
904.8987645393973
 20
1834.8974984176
 30
0.0
 11
904.8987645393973
 21
2414.8974984176
 31
0.0
  0
LINE
  5
32CD4
330
1F
100
AcDbEntity
  8
CONTINUOUS1
 48
3.0
100
AcDbLine
 10
950.4487645394052
 20
1829.8974984176
 30
0.0
 11
950.4487645394052
 21
2419.8974984176
 31
0.0
  0
LINE
  5
32CD9
330
1F
100
AcDbEntity
  8
CONTINUOUS1
 48
3.0
100
AcDbLine
 10
914.8987645393972
 20
2424.8974984176
 30
0.0
 11
945.4487645394051
 21
2424.8974984176
 31
0.0
  0
ARC
  5
32CDC
330
1F
100
AcDbEntity
  8
CONTINUOUS1
 48
3.0
100
AcDbCircle
 10
914.8987645393972
 20
2414.8974984176
 30
0.0
 40
10.0
100
AcDbArc
 50
90.0
 51
180.0
  0
LINE
  5
32E73
330
1F
100
AcDbEntity
  8
CONTINUOUS1
 48
3.0
100
AcDbLine
 10
936.8787645393986
 20
2443.297498417601
 30
0.0
 11
952.8787645393986
 21
2443.297498417601
 31
0.0
  0
LINE
  5
32E74
330
1F
100
AcDbEntity
  8
CONTINUOUS1
 48
3.0
100
AcDbLine
 10
936.2787645393991
 20
2428.9974984176
 30
0.0
 11
944.8787645393986
 21
2428.9974984176
 31
0.0
  0
LINE
  5
32E76
330
1F
100
AcDbEntity
  8
CONTINUOUS1
 48
3.0
100
AcDbLine
 10
987.3287645393984
 20
2426.0974984176
 30
0.0
 11
902.4287645393988
 21
2426.0974984176
 31
0.0
  0
LINE
  5
32E77
330
1F
100
AcDbEntity
  8
CONTINUOUS1
 48
3.0
100
AcDbLine
 10
932.8787645393985
 20
2428.9974984176
 30
0.0
 11
956.8787645393985
 21
2428.9974984176
 31
0.0
  0
LINE
  5
32E78
330
1F
100
AcDbEntity
  8
CONTINUOUS1
 48
3.0
100
AcDbLine
 10
932.8787645393985
 20
2431.297498417601
 30
0.0
 11
956.8787645393985
 21
2431.297498417601
 31
0.0
  0
LINE
  5
32E79
330
1F
100
AcDbEntity
  8
CONTINUOUS1
 48
3.0
100
AcDbLine
 10
936.8787645393986
 20
2431.297498417601
 30
0.0
 11
952.8787645393986
 21
2431.297498417601
 31
0.0
  0
ARC
  5
32E7A
330
1F
100
AcDbEntity
  8
CONTINUOUS1
 48
3.0
100
AcDbCircle
 10
924.8787645393987
 20
2410.097498417602
 30
0.0
 40
30.0
100
AcDbArc
 50
180.0
 51
206.1039999999558
  0
ARC
  5
32E7B
330
1F
100
AcDbEntity
  8
CONTINUOUS1
 48
3.0
100
AcDbCircle
 10
924.8787645393987
 20
2410.097498417602
 30
0.0
 40
30.0000000000025
100
AcDbArc
 50
153.8960999999614
 51
180.0
  0
LINE
  5
32E7C
330
1F
100
AcDbEntity
  8
CONTINUOUS1
 48
3.0
100
AcDbLine
 10
940.8787645393985
 20
2442.297498417602
 30
0.0
 11
940.8787645393985
 21
2432.297498417602
 31
0.0
  0
LINE
  5
32E7D
330
1F
100
AcDbEntity
  8
CONTINUOUS1
 48
3.0
100
AcDbLine
 10
938.8787645393986
 20
2442.297498417602
 30
0.0
 11
938.8787645393986
 21
2432.297498417602
 31
0.0
  0
LINE
  5
32E7E
330
1F
100
AcDbEntity
  8
CONTINUOUS1
 48
3.0
100
AcDbLine
 10
936.8787645393986
 20
2442.297498417602
 30
0.0
 11
936.8787645393986
 21
2432.297498417602
 31
0.0
  0
LINE
  5
32E7F
330
1F
100
AcDbEntity
  8
CONTINUOUS1
 48
3.0
100
AcDbLine
 10
935.8787645393986
 20
2442.297498417602
 30
0.0
 11
935.8787645393986
 21
2432.297498417602
 31
0.0
  0
LINE
  5
32E80
330
1F
100
AcDbEntity
  8
CONTINUOUS1
 48
3.0
100
AcDbLine
 10
932.8787645393985
 20
2428.9974984176
 30
0.0
 11
932.8787645393985
 21
2431.297498417601
 31
0.0
  0
LINE
  5
32E81
330
1F
100
AcDbEntity
  8
CONTINUOUS1
 48
3.0
100
AcDbLine
 10
928.7787645393992
 20
2426.0974984176
 30
0.0
 11
928.7787645393992
 21
2426.9974984176
 31
0.0
  0
LINE
  5
32E82
330
1F
100
AcDbEntity
  8
CONTINUOUS1
 48
3.0
100
AcDbLine
 10
936.2787645393991
 20
2426.9974984176
 30
0.0
 11
936.2787645393991
 21
2428.9974984176
 31
0.0
  0
LINE
  5
32E83
330
1F
100
AcDbEntity
  8
CONTINUOUS1
 48
3.0
100
AcDbLine
 10
928.7787645393992
 20
2426.9974984176
 30
0.0
 11
936.2787645393991
 21
2426.9974984176
 31
0.0
  0
ARC
  5
32E84
330
1F
100
AcDbEntity
  8
CONTINUOUS1
 48
3.0
100
AcDbCircle
 10
936.8787645393986
 20
2432.297498417602
 30
0.0
 40
1.0
100
AcDbArc
 50
180.0
 51
270.0
  0
ARC
  5
32E85
330
1F
100
AcDbEntity
  8
CONTINUOUS1
 48
3.0
100
AcDbCircle
 10
936.8787645393986
 20
2442.297498417602
 30
0.0
 40
1.0
100
AcDbArc
 50
90.0
 51
180.0
  0
ARC
  5
32E86
330
1F
100
AcDbEntity
  8
CONTINUOUS1
 48
3.0
100
AcDbCircle
 10
902.4287645393988
 20
2421.097498417601
 30
0.0
 40
5.0
100
AcDbArc
 50
90.0
 51
153.8960999999614
  0
ARC
  5
32E87
330
1F
100
AcDbEntity
  8
CONTINUOUS1
 48
3.0
100
AcDbCircle
 10
902.4287645393988
 20
2399.097498417602
 30
0.0
 40
5.00000000000134
100
AcDbArc
 50
206.1040000000519
 51
270.0
  0
ARC
  5
32E89
330
1F
100
AcDbEntity
  8
CONTINUOUS1
 48
3.0
100
AcDbCircle
 10
987.3287645393984
 20
2421.097498417601
 30
0.0
 40
5.000000000000523
100
AcDbArc
 50
49.46419788865313
 51
90.0
  0
LINE
  5
32E8A
330
1F
100
AcDbEntity
  8
CONTINUOUS1
 48
3.0
100
AcDbLine
 10
948.8787645393985
 20
2442.297498417602
 30
0.0
 11
948.8787645393985
 21
2432.297498417602
 31
0.0
  0
LINE
  5
32E8B
330
1F
100
AcDbEntity
  8
CONTINUOUS1
 48
3.0
100
AcDbLine
 10
950.8787645393987
 20
2442.297498417602
 30
0.0
 11
950.8787645393987
 21
2432.297498417602
 31
0.0
  0
LINE
  5
32E8C
330
1F
100
AcDbEntity
  8
CONTINUOUS1
 48
3.0
100
AcDbLine
 10
952.8787645393986
 20
2442.297498417602
 30
0.0
 11
952.8787645393986
 21
2432.297498417602
 31
0.0
  0
LINE
  5
32E8D
330
1F
100
AcDbEntity
  8
CONTINUOUS1
 48
3.0
100
AcDbLine
 10
953.8787645393986
 20
2442.297498417602
 30
0.0
 11
953.8787645393986
 21
2432.297498417602
 31
0.0
  0
LINE
  5
32E8E
330
1F
100
AcDbEntity
  8
CONTINUOUS1
 48
3.0
100
AcDbLine
 10
956.8787645393985
 20
2428.9974984176
 30
0.0
 11
956.8787645393985
 21
2431.297498417601
 31
0.0
  0
LINE
  5
32E8F
330
1F
100
AcDbEntity
  8
CONTINUOUS1
 48
3.0
100
AcDbLine
 10
960.9787645393971
 20
2426.0974984176
 30
0.0
 11
960.9787645393971
 21
2426.9974984176
 31
0.0
  0
LINE
  5
32E90
330
1F
100
AcDbEntity
  8
CONTINUOUS1
 48
3.0
100
AcDbLine
 10
953.4787645393972
 20
2426.9974984176
 30
0.0
 11
953.4787645393972
 21
2428.9974984176
 31
0.0
  0
LINE
  5
32E91
330
1F
100
AcDbEntity
  8
CONTINUOUS1
 48
3.0
100
AcDbLine
 10
960.9787645393971
 20
2426.9974984176
 30
0.0
 11
953.4787645393972
 21
2426.9974984176
 31
0.0
  0
ARC
  5
32E92
330
1F
100
AcDbEntity
  8
CONTINUOUS1
 48
3.0
100
AcDbCircle
 10
952.8787645393986
 20
2432.297498417602
 30
0.0
 40
1.0
100
AcDbArc
 50
270.0
 51
0.0
  0
ARC
  5
32E93
330
1F
100
AcDbEntity
  8
CONTINUOUS1
 48
3.0
100
AcDbCircle
 10
952.8787645393986
 20
2442.297498417602
 30
0.0
 40
1.0
100
AcDbArc
 50
0.0
 51
90.0
  0
LINE
  5
32E94
330
1F
100
AcDbEntity
  8
CONTINUOUS1
 48
3.0
100
AcDbLine
 10
946.8787645393986
 20
2442.297498417602
 30
0.0
 11
946.8787645393986
 21
2432.297498417602
 31
0.0
  0
LINE
  5
32E95
330
1F
100
AcDbEntity
  8
CONTINUOUS1
 48
3.0
100
AcDbLine
 10
944.8787645393986
 20
2442.297498417602
 30
0.0
 11
944.8787645393986
 21
2432.297498417602
 31
0.0
  0
LINE
  5
32E96
330
1F
100
AcDbEntity
  8
CONTINUOUS1
 48
3.0
100
AcDbLine
 10
942.8787645393986
 20
2442.297498417602
 30
0.0
 11
942.8787645393986
 21
2432.297498417602
 31
0.0
  0
LINE
  5
32E97
330
1F
100
AcDbEntity
  8
CONTINUOUS1
 48
3.0
100
AcDbLine
 10
953.4787645393972
 20
2428.9974984176
 30
0.0
 11
944.8787645393986
 21
2428.9974984176
 31
0.0
  0
LINE
  5
32E9A
330
1F
100
AcDbEntity
  8
CONTINUOUS1
 48
3.0
100
AcDbLine
 10
904.8987645393973
 20
2394.0974984176
 30
0.0
 11
902.4287645393988
 21
2394.0974984176
 31
0.0
  0
LINE
  5
32EAB
330
1F
100
AcDbEntity
  8
CENTER
 48
3.0
100
AcDbLine
 10
1229.078764539398
 20
2124.8974984176
 30
0.0
 11
854.8987645393973
 21
2124.8974984176
 31
0.0
  0
LINE
  5
32EF4
330
1F
100
AcDbEntity
  8
CONTINUOUS1
 48
3.0
100
AcDbLine
 10
1179.078764539398
 20
1834.897498417601
 30
0.0
 11
1179.078764539398
 21
2414.8974984176
 31
0.0
  0
LINE
  5
32EF5
330
1F
100
AcDbEntity
  8
CONTINUOUS1
 48
3.0
100
AcDbLine
 10
1133.538764539395
 20
1829.8974984176
 30
0.0
 11
1133.538764539395
 21
2419.8974984176
 31
0.0
  0
LINE
  5
32EF9
330
1F
100
AcDbEntity
  8
CONTINUOUS1
 48
3.0
100
AcDbLine
 10
1138.538764539394
 20
2424.8974984176
 30
0.0
 11
1169.078764539398
 21
2424.897498417601
 31
0.0
  0
ARC
  5
32F01
330
1F
100
AcDbEntity
  8
CONTINUOUS1
 48
3.0
100
AcDbCircle
 10
1169.078764539398
 20
2414.8974984176
 30
0.0
 40
10.0
100
AcDbArc
 50
0.0
 51
90.0
  0
LINE
  5
32F03
330
1F
100
AcDbEntity
  8
PHANTOM
 48
3.0
100
AcDbLine
 10
1380.244944798575
 20
390.6218895199904
 30
0.0
 11
1951.644116516374
 21
390.6218895199904
 31
0.0
  0
LINE
  5
32F08
330
1F
100
AcDbEntity
  8
CONTINUOUS1
 48
3.0
100
AcDbLine
 10
1437.644116516375
 20
397.1218895199904
 30
0.0
 11
1765.644116516375
 21
397.1218895199904
 31
0.0
  0
LINE
  5
32F09
330
1F
100
AcDbEntity
  8
CONTINUOUS1
 48
3.0
100
AcDbLine
 10
1418.644116516375
 20
725.6218895199904
 30
0.0
 11
1784.644116516375
 21
725.6218895199904
 31
0.0
  0
LINE
  5
32F0A
330
1F
100
AcDbEntity
  8
CONTINUOUS1
 48
3.0
100
AcDbLine
 10
1436.344116516375
 20
395.6218895199904
 30
0.0
 11
1766.944116516376
 21
395.6218895199904
 31
0.0
  0
LINE
  5
32F0B
330
1F
100
AcDbEntity
  8
CONTINUOUS1
 48
3.0
100
AcDbLine
 10
1451.644116516375
 20
392.1218895199904
 30
0.0
 11
1751.644116516375
 21
392.1218895199904
 31
0.0
  0
LINE
  5
32F0C
330
1F
100
AcDbEntity
  8
CONTINUOUS1
 48
3.0
100
AcDbLine
 10
1438.644116516375
 20
671.4218895199906
 30
0.0
 11
1764.644116516375
 21
671.4218895199906
 31
0.0
  0
LINE
  5
32F0F
330
1F
100
AcDbEntity
  8
CONTINUOUS1
 48
3.0
100
AcDbLine
 10
1451.644116516376
 20
390.6218895199904
 30
0.0
 11
1751.644116516375
 21
390.6218895199904
 31
0.0
  0
LINE
  5
32F10
330
1F
100
AcDbEntity
  8
CONTINUOUS1
 48
3.0
100
AcDbLine
 10
1347.344116516375
 20
727.1218895199904
 30
0.0
 11
1347.344116516375
 21
493.6218895199904
 31
0.0
  0
LINE
  5
32F11
330
1F
100
AcDbEntity
  8
CONTINUOUS1
 48
3.0
100
AcDbLine
 10
1348.644116516375
 20
730.1218895199903
 30
0.0
 11
1348.644116516375
 21
456.6218895199904
 31
0.0
  0
LINE
  5
32F12
330
1F
100
AcDbEntity
  8
CONTINUOUS1
 48
3.0
100
AcDbLine
 10
1362.644116516375
 20
730.1218895199903
 30
0.0
 11
1362.644116516375
 21
456.6218895199904
 31
0.0
  0
LINE
  5
32F13
330
1F
100
AcDbEntity
  8
CONTINUOUS1
 48
3.0
100
AcDbLine
 10
1437.644116516375
 20
666.6218895199904
 30
0.0
 11
1437.644116516375
 21
397.1218895199904
 31
0.0
  0
LINE
  5
32F14
330
1F
100
AcDbEntity
  8
CONTINUOUS1
 48
3.0
100
AcDbLine
 10
1437.144116516375
 20
666.6218895199904
 30
0.0
 11
1437.144116516375
 21
395.6218895199904
 31
0.0
  0
LINE
  5
32F15
330
1F
100
AcDbEntity
  8
CONTINUOUS1
 48
3.0
100
AcDbLine
 10
1436.344116516375
 20
666.6218895199904
 30
0.0
 11
1436.344116516375
 21
493.6218895199904
 31
0.0
  0
ARC
  5
32F16
330
1F
100
AcDbEntity
  8
CONTINUOUS1
 48
3.0
100
AcDbCircle
 10
1355.644116516375
 20
440.6218895199904
 30
0.0
 40
18.00000000000104
100
AcDbArc
 50
162.2590000000114
 51
197.7409999999886
  0
ARC
  5
32F17
330
1F
100
AcDbEntity
  8
CONTINUOUS1
 48
3.0
100
AcDbCircle
 10
1358.644116516375
 20
440.6218895199913
 30
0.0
 40
18.0000000000016
100
AcDbArc
 50
342.2590000000114
 51
17.74090000001634
  0
ARC
  5
32F18
330
1F
100
AcDbEntity
  8
CONTINUOUS1
 48
3.0
100
AcDbCircle
 10
1379.804116516375
 20
440.6218895199904
 30
0.0
 40
8.835939999999936
100
AcDbArc
 50
270.0
 51
90.0
  0
LINE
  5
32F19
330
1F
100
AcDbEntity
  8
CONTINUOUS1
 48
3.0
100
AcDbLine
 10
1436.344116516375
 20
493.6218895199904
 30
0.0
 11
1436.344116516375
 21
395.6218895199904
 31
0.0
  0
LINE
  5
32F1A
330
1F
100
AcDbEntity
  8
CONTINUOUS1
 48
3.0
100
AcDbLine
 10
1295.244116516375
 20
448.6218895199904
 30
0.0
 11
1295.244116516375
 21
432.6218895199904
 31
0.0
  0
LINE
  5
32F1B
330
1F
100
AcDbEntity
  8
CONTINUOUS1
 48
3.0
100
AcDbLine
 10
1283.244116516375
 20
448.6218895199904
 30
0.0
 11
1283.244116516375
 21
432.6218895199904
 31
0.0
  0
LINE
  5
32F1C
330
1F
100
AcDbEntity
  8
CONTINUOUS1
 48
3.0
100
AcDbLine
 10
1337.644116516375
 20
449.6218895199904
 30
0.0
 11
1337.644116516375
 21
431.6218895199904
 31
0.0
  0
LINE
  5
32F1D
330
1F
100
AcDbEntity
  8
CONTINUOUS1
 48
3.0
100
AcDbLine
 10
1363.644116516375
 20
456.6218895199904
 30
0.0
 11
1363.644116516375
 21
424.6218895199904
 31
0.0
  0
LINE
  5
32F1E
330
1F
100
AcDbEntity
  8
CONTINUOUS1
 48
3.0
100
AcDbLine
 10
1347.644116516375
 20
456.6218895199904
 30
0.0
 11
1347.644116516375
 21
424.6218895199904
 31
0.0
  0
LINE
  5
32F1F
330
1F
100
AcDbEntity
  8
CONTINUOUS1
 48
3.0
100
AcDbLine
 10
1332.444116516376
 20
398.1718895199906
 30
0.0
 11
1332.444116516376
 21
483.0718895199902
 31
0.0
  0
LINE
  5
32F20
330
1F
100
AcDbEntity
  8
CONTINUOUS1
 48
3.0
100
AcDbLine
 10
1335.344116516375
 20
432.0218895199919
 30
0.0
 11
1335.344116516375
 21
440.6218895199904
 31
0.0
  0
LINE
  5
32F21
330
1F
100
AcDbEntity
  8
CONTINUOUS1
 48
3.0
100
AcDbLine
 10
1297.544116516376
 20
432.0218895199919
 30
0.0
 11
1297.544116516376
 21
440.6218895199904
 31
0.0
  0
LINE
  5
32F22
330
1F
100
AcDbEntity
  8
CONTINUOUS1
 48
3.0
100
AcDbLine
 10
1300.444116516376
 20
398.1718895199906
 30
0.0
 11
1300.444116516376
 21
483.0718895199902
 31
0.0
  0
LINE
  5
32F23
330
1F
100
AcDbEntity
  8
CONTINUOUS1
 48
3.0
100
AcDbLine
 10
1337.644116516375
 20
452.6218895199904
 30
0.0
 11
1337.644116516375
 21
428.6218895199904
 31
0.0
  0
LINE
  5
32F24
330
1F
100
AcDbEntity
  8
CONTINUOUS1
 48
3.0
100
AcDbLine
 10
1335.344116516375
 20
452.6218895199904
 30
0.0
 11
1335.344116516375
 21
428.6218895199904
 31
0.0
  0
LINE
  5
32F25
330
1F
100
AcDbEntity
  8
CONTINUOUS1
 48
3.0
100
AcDbLine
 10
1297.544116516376
 20
452.6218895199904
 30
0.0
 11
1297.544116516376
 21
428.6218895199904
 31
0.0
  0
LINE
  5
32F26
330
1F
100
AcDbEntity
  8
CONTINUOUS1
 48
3.0
100
AcDbLine
 10
1295.244116516375
 20
452.6218895199904
 30
0.0
 11
1295.244116516375
 21
428.6218895199904
 31
0.0
  0
LINE
  5
32F27
330
1F
100
AcDbEntity
  8
CONTINUOUS1
 48
3.0
100
AcDbLine
 10
1366.644116516375
 20
429.6518895199901
 30
0.0
 11
1366.644116516375
 21
451.5908895199904
 31
0.0
  0
LINE
  5
32F28
330
1F
100
AcDbEntity
  8
CONTINUOUS1
 48
3.0
100
AcDbLine
 10
1376.644116516375
 20
431.6218895199904
 30
0.0
 11
1376.644116516375
 21
449.6218895199904
 31
0.0
  0
LINE
  5
32F29
330
1F
100
AcDbEntity
  8
CONTINUOUS1
 48
3.0
100
AcDbLine
 10
1347.644116516375
 20
424.6218895199904
 30
0.0
 11
1363.644116516375
 21
424.6218895199904
 31
0.0
  0
ARC
  5
32F2A
330
1F
100
AcDbEntity
  8
CONTINUOUS1
 48
3.0
100
AcDbCircle
 10
1316.444116516376
 20
420.6218895199904
 30
0.0
 40
29.99999999999996
100
AcDbArc
 50
243.8960000000441
 51
270.0
  0
ARC
  5
32F2B
330
1F
100
AcDbEntity
  8
CONTINUOUS1
 48
3.0
100
AcDbCircle
 10
1294.244116516375
 20
432.6218895199904
 30
0.0
 40
1.0
100
AcDbArc
 50
270.0
 51
0.0
  0
ARC
  5
32F2C
330
1F
100
AcDbEntity
  8
CONTINUOUS1
 48
3.0
100
AcDbCircle
 10
1284.244116516375
 20
432.6218895199904
 30
0.0
 40
1.0
100
AcDbArc
 50
180.0
 51
270.0
  0
ARC
  5
32F2D
330
1F
100
AcDbEntity
  8
CONTINUOUS1
 48
3.0
100
AcDbCircle
 10
1305.444116516376
 20
398.1718895199906
 30
0.0
 40
5.0
100
AcDbArc
 50
180.0
 51
243.895999999948
  0
LINE
  5
32F2E
330
1F
100
AcDbEntity
  8
CONTINUOUS1
 48
3.0
100
AcDbLine
 10
1284.244116516375
 20
431.6218895199904
 30
0.0
 11
1294.244116516375
 21
431.6218895199904
 31
0.0
  0
LINE
  5
32F2F
330
1F
100
AcDbEntity
  8
CONTINUOUS1
 48
3.0
100
AcDbLine
 10
1299.544116516376
 20
424.5218895199919
 30
0.0
 11
1299.544116516376
 21
432.0218895199919
 31
0.0
  0
LINE
  5
32F30
330
1F
100
AcDbEntity
  8
CONTINUOUS1
 48
3.0
100
AcDbLine
 10
1300.444116516376
 20
424.5218895199919
 30
0.0
 11
1299.544116516376
 21
424.5218895199919
 31
0.0
  0
LINE
  5
32F31
330
1F
100
AcDbEntity
  8
CONTINUOUS1
 48
3.0
100
AcDbLine
 10
1299.544116516376
 20
432.0218895199919
 30
0.0
 11
1297.544116516376
 21
432.0218895199919
 31
0.0
  0
LINE
  5
32F32
330
1F
100
AcDbEntity
  8
CONTINUOUS1
 48
3.0
100
AcDbLine
 10
1295.244116516375
 20
428.6218895199904
 30
0.0
 11
1297.544116516376
 21
428.6218895199904
 31
0.0
  0
LINE
  5
32F33
330
1F
100
AcDbEntity
  8
CONTINUOUS1
 48
3.0
100
AcDbLine
 10
1284.244116516375
 20
432.6218895199904
 30
0.0
 11
1294.244116516375
 21
432.6218895199904
 31
0.0
  0
LINE
  5
32F34
330
1F
100
AcDbEntity
  8
CONTINUOUS1
 48
3.0
100
AcDbLine
 10
1284.244116516375
 20
434.6218895199903
 30
0.0
 11
1294.244116516375
 21
434.6218895199903
 31
0.0
  0
LINE
  5
32F35
330
1F
100
AcDbEntity
  8
CONTINUOUS1
 48
3.0
100
AcDbLine
 10
1284.244116516375
 20
436.6218895199904
 30
0.0
 11
1294.244116516375
 21
436.6218895199904
 31
0.0
  0
LINE
  5
32F36
330
1F
100
AcDbEntity
  8
CONTINUOUS1
 48
3.0
100
AcDbLine
 10
1284.244116516375
 20
431.6218895199904
 30
0.0
 11
1294.244116516375
 21
431.6218895199904
 31
0.0
  0
ARC
  5
32F37
330
1F
100
AcDbEntity
  8
CONTINUOUS1
 48
3.0
100
AcDbCircle
 10
1316.444116516376
 20
420.6218895199904
 30
0.0
 40
30.0
100
AcDbArc
 50
270.0
 51
296.1039999999558
  0
ARC
  5
32F38
330
1F
100
AcDbEntity
  8
CONTINUOUS1
 48
3.0
100
AcDbCircle
 10
1327.444116516376
 20
398.1718895199906
 30
0.0
 40
5.000000000000523
100
AcDbArc
 50
296.1040000000519
 51
0.0
  0
LINE
  5
32F39
330
1F
100
AcDbEntity
  8
CONTINUOUS1
 48
3.0
100
AcDbLine
 10
1338.504116516375
 20
435.1368895199907
 30
0.0
 11
1347.644116516375
 21
435.1368895199907
 31
0.0
  0
LINE
  5
32F3A
330
1F
100
AcDbEntity
  8
CONTINUOUS1
 48
3.0
100
AcDbLine
 10
1337.644116516375
 20
431.6218895199904
 30
0.0
 11
1338.784116516376
 21
429.6518895199901
 31
0.0
  0
LINE
  5
32F3B
330
1F
100
AcDbEntity
  8
CONTINUOUS1
 48
3.0
100
AcDbLine
 10
1338.784116516376
 20
429.6518895199901
 30
0.0
 11
1347.644116516375
 21
429.6518895199901
 31
0.0
  0
LINE
  5
32F3C
330
1F
100
AcDbEntity
  8
CONTINUOUS1
 48
3.0
100
AcDbLine
 10
1338.504116516375
 20
435.1368895199907
 30
0.0
 11
1337.644116516375
 21
431.6218895199904
 31
0.0
  0
LINE
  5
32F3D
330
1F
100
AcDbEntity
  8
CONTINUOUS1
 48
3.0
100
AcDbLine
 10
1332.444116516376
 20
424.5218895199919
 30
0.0
 11
1333.344116516375
 21
424.5218895199919
 31
0.0
  0
LINE
  5
32F3E
330
1F
100
AcDbEntity
  8
CONTINUOUS1
 48
3.0
100
AcDbLine
 10
1333.344116516375
 20
424.5218895199919
 30
0.0
 11
1333.344116516375
 21
432.0218895199919
 31
0.0
  0
LINE
  5
32F3F
330
1F
100
AcDbEntity
  8
CONTINUOUS1
 48
3.0
100
AcDbLine
 10
1333.344116516375
 20
432.0218895199919
 30
0.0
 11
1335.344116516375
 21
432.0218895199919
 31
0.0
  0
LINE
  5
32F40
330
1F
100
AcDbEntity
  8
CONTINUOUS1
 48
3.0
100
AcDbLine
 10
1335.344116516375
 20
428.6218895199904
 30
0.0
 11
1337.644116516375
 21
428.6218895199904
 31
0.0
  0
LINE
  5
32F41
330
1F
100
AcDbEntity
  8
CONTINUOUS1
 48
3.0
100
AcDbLine
 10
1376.644116516375
 20
431.6218895199904
 30
0.0
 11
1375.784116516376
 21
435.1368895199907
 31
0.0
  0
LINE
  5
32F42
330
1F
100
AcDbEntity
  8
CONTINUOUS1
 48
3.0
100
AcDbLine
 10
1376.644116516375
 20
431.6218895199904
 30
0.0
 11
1375.504116516375
 21
429.6518895199901
 31
0.0
  0
LINE
  5
32F43
330
1F
100
AcDbEntity
  8
CONTINUOUS1
 48
3.0
100
AcDbLine
 10
1375.784116516376
 20
435.1368895199907
 30
0.0
 11
1366.644116516375
 21
435.1368895199907
 31
0.0
  0
LINE
  5
32F44
330
1F
100
AcDbEntity
  8
CONTINUOUS1
 48
3.0
100
AcDbLine
 10
1375.504116516375
 20
429.6518895199901
 30
0.0
 11
1363.644116516375
 21
429.6518895199901
 31
0.0
  0
LINE
  5
32F45
330
1F
100
AcDbEntity
  8
CONTINUOUS1
 48
3.0
100
AcDbLine
 10
1379.804116516375
 20
431.7858895199901
 30
0.0
 11
1376.744116516375
 21
431.7858895199901
 31
0.0
  0
LINE
  5
32F46
330
1F
100
AcDbEntity
  8
CONTINUOUS1
 48
3.0
100
AcDbLine
 10
1362.644116516375
 20
456.6218895199904
 30
0.0
 11
1348.644116516375
 21
456.6218895199904
 31
0.0
  0
ARC
  5
32F47
330
1F
100
AcDbEntity
  8
CONTINUOUS1
 48
3.0
100
AcDbCircle
 10
1316.444116516376
 20
460.6218895199904
 30
0.0
 40
30.0
100
AcDbArc
 50
90.0
 51
116.1039999999558
  0
ARC
  5
32F48
330
1F
100
AcDbEntity
  8
CONTINUOUS1
 48
3.0
100
AcDbCircle
 10
1284.244116516375
 20
448.6218895199904
 30
0.0
 40
1.0
100
AcDbArc
 50
90.0
 51
180.0
  0
ARC
  5
32F49
330
1F
100
AcDbEntity
  8
CONTINUOUS1
 48
3.0
100
AcDbCircle
 10
1294.244116516375
 20
448.6218895199904
 30
0.0
 40
1.0
100
AcDbArc
 50
0.0
 51
90.0
  0
ARC
  5
32F4A
330
1F
100
AcDbEntity
  8
CONTINUOUS1
 48
3.0
100
AcDbCircle
 10
1305.444116516376
 20
483.0718895199902
 30
0.0
 40
5.00000000000134
100
AcDbArc
 50
116.1040000000519
 51
180.0
  0
LINE
  5
32F4B
330
1F
100
AcDbEntity
  8
CONTINUOUS1
 48
3.0
100
AcDbLine
 10
1284.244116516375
 20
449.6218895199904
 30
0.0
 11
1294.244116516375
 21
449.6218895199904
 31
0.0
  0
LINE
  5
32F4C
330
1F
100
AcDbEntity
  8
CONTINUOUS1
 48
3.0
100
AcDbLine
 10
1299.544116516376
 20
456.7218895199898
 30
0.0
 11
1299.544116516376
 21
449.2218895199898
 31
0.0
  0
LINE
  5
32F4D
330
1F
100
AcDbEntity
  8
CONTINUOUS1
 48
3.0
100
AcDbLine
 10
1297.544116516376
 20
449.2218895199898
 30
0.0
 11
1297.544116516376
 21
440.6218895199904
 31
0.0
  0
LINE
  5
32F4E
330
1F
100
AcDbEntity
  8
CONTINUOUS1
 48
3.0
100
AcDbLine
 10
1300.444116516376
 20
456.7218895199898
 30
0.0
 11
1299.544116516376
 21
456.7218895199898
 31
0.0
  0
LINE
  5
32F4F
330
1F
100
AcDbEntity
  8
CONTINUOUS1
 48
3.0
100
AcDbLine
 10
1299.544116516376
 20
449.2218895199898
 30
0.0
 11
1297.544116516376
 21
449.2218895199898
 31
0.0
  0
LINE
  5
32F50
330
1F
100
AcDbEntity
  8
CONTINUOUS1
 48
3.0
100
AcDbLine
 10
1295.244116516375
 20
452.6218895199904
 30
0.0
 11
1297.544116516376
 21
452.6218895199904
 31
0.0
  0
LINE
  5
32F51
330
1F
100
AcDbEntity
  8
CONTINUOUS1
 48
3.0
100
AcDbLine
 10
1284.244116516375
 20
448.6218895199904
 30
0.0
 11
1294.244116516375
 21
448.6218895199904
 31
0.0
  0
LINE
  5
32F52
330
1F
100
AcDbEntity
  8
CONTINUOUS1
 48
3.0
100
AcDbLine
 10
1284.244116516375
 20
446.6218895199904
 30
0.0
 11
1294.244116516375
 21
446.6218895199904
 31
0.0
  0
LINE
  5
32F53
330
1F
100
AcDbEntity
  8
CONTINUOUS1
 48
3.0
100
AcDbLine
 10
1284.244116516375
 20
444.6218895199904
 30
0.0
 11
1294.244116516375
 21
444.6218895199904
 31
0.0
  0
LINE
  5
32F54
330
1F
100
AcDbEntity
  8
CONTINUOUS1
 48
3.0
100
AcDbLine
 10
1284.244116516375
 20
449.6218895199904
 30
0.0
 11
1294.244116516375
 21
449.6218895199904
 31
0.0
  0
LINE
  5
32F55
330
1F
100
AcDbEntity
  8
CONTINUOUS1
 48
3.0
100
AcDbLine
 10
1284.244116516375
 20
442.6218895199903
 30
0.0
 11
1294.244116516375
 21
442.6218895199903
 31
0.0
  0
LINE
  5
32F56
330
1F
100
AcDbEntity
  8
CONTINUOUS1
 48
3.0
100
AcDbLine
 10
1284.244116516375
 20
438.6218895199903
 30
0.0
 11
1294.244116516375
 21
438.6218895199903
 31
0.0
  0
LINE
  5
32F57
330
1F
100
AcDbEntity
  8
CONTINUOUS1
 48
3.0
100
AcDbLine
 10
1284.244116516375
 20
440.6218895199904
 30
0.0
 11
1294.244116516375
 21
440.6218895199904
 31
0.0
  0
ARC
  5
32F58
330
1F
100
AcDbEntity
  8
CONTINUOUS1
 48
3.0
100
AcDbCircle
 10
1316.444116516376
 20
460.6218895199904
 30
0.0
 40
29.9999999999985
100
AcDbArc
 50
63.89609999996152
 51
90.0
  0
ARC
  5
32F59
330
1F
100
AcDbEntity
  8
CONTINUOUS1
 48
3.0
100
AcDbCircle
 10
1327.444116516376
 20
483.0718895199902
 30
0.0
 40
5.0
100
AcDbArc
 50
0.0
 51
63.89610000007802
  0
LINE
  5
32F5A
330
1F
100
AcDbEntity
  8
CONTINUOUS1
 48
3.0
100
AcDbLine
 10
1348.644116516375
 20
456.6218895199904
 30
0.0
 11
1347.644116516375
 21
456.6218895199904
 31
0.0
  0
LINE
  5
32F5B
330
1F
100
AcDbEntity
  8
CONTINUOUS1
 48
3.0
100
AcDbLine
 10
1338.504116516375
 20
446.10688951999
 30
0.0
 11
1347.644116516375
 21
446.10688951999
 31
0.0
  0
LINE
  5
32F5C
330
1F
100
AcDbEntity
  8
CONTINUOUS1
 48
3.0
100
AcDbLine
 10
1337.644116516375
 20
449.6218895199904
 30
0.0
 11
1338.504116516375
 21
446.10688951999
 31
0.0
  0
LINE
  5
32F5D
330
1F
100
AcDbEntity
  8
CONTINUOUS1
 48
3.0
100
AcDbLine
 10
1337.644116516375
 20
449.6218895199904
 30
0.0
 11
1338.784116516376
 21
451.5908895199904
 31
0.0
  0
LINE
  5
32F5E
330
1F
100
AcDbEntity
  8
CONTINUOUS1
 48
3.0
100
AcDbLine
 10
1338.784116516376
 20
451.5908895199904
 30
0.0
 11
1347.644116516375
 21
451.5908895199904
 31
0.0
  0
LINE
  5
32F5F
330
1F
100
AcDbEntity
  8
CONTINUOUS1
 48
3.0
100
AcDbLine
 10
1347.344116516375
 20
493.6218895199904
 30
0.0
 11
1348.644116516375
 21
493.6218895199904
 31
0.0
  0
LINE
  5
32F60
330
1F
100
AcDbEntity
  8
CONTINUOUS1
 48
3.0
100
AcDbLine
 10
1333.344116516375
 20
449.2218895199898
 30
0.0
 11
1335.344116516375
 21
449.2218895199898
 31
0.0
  0
LINE
  5
32F61
330
1F
100
AcDbEntity
  8
CONTINUOUS1
 48
3.0
100
AcDbLine
 10
1332.444116516376
 20
456.7218895199898
 30
0.0
 11
1333.344116516375
 21
456.7218895199898
 31
0.0
  0
LINE
  5
32F62
330
1F
100
AcDbEntity
  8
CONTINUOUS1
 48
3.0
100
AcDbLine
 10
1335.344116516375
 20
449.2218895199898
 30
0.0
 11
1335.344116516375
 21
440.6218895199904
 31
0.0
  0
LINE
  5
32F63
330
1F
100
AcDbEntity
  8
CONTINUOUS1
 48
3.0
100
AcDbLine
 10
1333.344116516375
 20
456.7218895199898
 30
0.0
 11
1333.344116516375
 21
449.2218895199898
 31
0.0
  0
LINE
  5
32F64
330
1F
100
AcDbEntity
  8
CONTINUOUS1
 48
3.0
100
AcDbLine
 10
1335.344116516375
 20
452.6218895199904
 30
0.0
 11
1337.644116516375
 21
452.6218895199904
 31
0.0
  0
LINE
  5
32F65
330
1F
100
AcDbEntity
  8
CONTINUOUS1
 48
3.0
100
AcDbLine
 10
1362.644116516375
 20
493.6218895199904
 30
0.0
 11
1436.344116516375
 21
493.6218895199904
 31
0.0
  0
LINE
  5
32F66
330
1F
100
AcDbEntity
  8
CONTINUOUS1
 48
3.0
100
AcDbLine
 10
1363.644116516375
 20
456.6218895199904
 30
0.0
 11
1362.644116516375
 21
456.6218895199904
 31
0.0
  0
LINE
  5
32F67
330
1F
100
AcDbEntity
  8
CONTINUOUS1
 48
3.0
100
AcDbLine
 10
1376.744116516375
 20
449.4578895199906
 30
0.0
 11
1375.504116516375
 21
451.5908895199904
 31
0.0
  0
LINE
  5
32F68
330
1F
100
AcDbEntity
  8
CONTINUOUS1
 48
3.0
100
AcDbLine
 10
1375.504116516375
 20
451.5908895199904
 30
0.0
 11
1363.644116516375
 21
451.5908895199904
 31
0.0
  0
LINE
  5
32F69
330
1F
100
AcDbEntity
  8
CONTINUOUS1
 48
3.0
100
AcDbLine
 10
1375.784116516376
 20
446.10688951999
 30
0.0
 11
1366.644116516375
 21
446.10688951999
 31
0.0
  0
LINE
  5
32F6A
330
1F
100
AcDbEntity
  8
CONTINUOUS1
 48
3.0
100
AcDbLine
 10
1375.784116516376
 20
446.10688951999
 30
0.0
 11
1376.644116516375
 21
449.6218895199904
 31
0.0
  0
LINE
  5
32F6B
330
1F
100
AcDbEntity
  8
CONTINUOUS1
 48
3.0
100
AcDbLine
 10
1379.804116516375
 20
449.4578895199906
 30
0.0
 11
1376.744116516375
 21
449.4578895199906
 31
0.0
  0
LINE
  5
32F6C
330
1F
100
AcDbEntity
  8
CONTINUOUS1
 48
3.0
100
AcDbLine
 10
1451.644116516375
 20
392.1218895199904
 30
0.0
 11
1451.644116516375
 21
390.6218895199904
 31
0.0
  0
LINE
  5
32F6D
330
1F
100
AcDbEntity
  8
CENTER
 48
3.0
100
AcDbLine
 10
1481.644116516375
 20
515.6218895199908
 30
0.0
 11
1481.644116516375
 21
562.6218895199918
 31
0.0
  0
ARC
  5
32F6E
330
1F
100
AcDbEntity
  8
CONTINUOUS1
 48
3.0
100
AcDbCircle
 10
1481.644116516375
 20
546.6218895199913
 30
0.0
 40
5.99999999999909
100
AcDbArc
 50
90.0
 51
180.0
  0
ARC
  5
32F6F
330
1F
100
AcDbEntity
  8
CONTINUOUS1
 48
3.0
100
AcDbCircle
 10
1481.644116516375
 20
546.6218895199913
 30
0.0
 40
6.0
100
AcDbArc
 50
0.0
 51
90.0
  0
LINE
  5
32F70
330
1F
100
AcDbEntity
  8
CENTER
 48
3.0
100
AcDbLine
 10
1465.644116516375
 20
539.1218895199909
 30
0.0
 11
1497.644116516375
 21
539.1218895199909
 31
0.0
  0
ARC
  5
32F71
330
1F
100
AcDbEntity
  8
CONTINUOUS1
 48
3.0
100
AcDbCircle
 10
1481.644116516375
 20
531.6218895199904
 30
0.0
 40
6.0
100
AcDbArc
 50
270.0
 51
0.0
  0
ARC
  5
32F72
330
1F
100
AcDbEntity
  8
CONTINUOUS1
 48
3.0
100
AcDbCircle
 10
1481.644116516375
 20
531.6218895199904
 30
0.0
 40
6.0
100
AcDbArc
 50
180.0
 51
270.0
  0
LINE
  5
32F73
330
1F
100
AcDbEntity
  8
CONTINUOUS1
 48
3.0
100
AcDbLine
 10
1482.644116516375
 20
525.6218895199904
 30
0.0
 11
1481.644116516375
 21
525.6218895199904
 31
0.0
  0
LINE
  5
32F74
330
1F
100
AcDbEntity
  8
CONTINUOUS1
 48
3.0
100
AcDbLine
 10
1475.644116516375
 20
531.6218895199904
 30
0.0
 11
1475.644116516375
 21
546.6218895199913
 31
0.0
  0
LINE
  5
32F75
330
1F
100
AcDbEntity
  8
CONTINUOUS1
 48
3.0
100
AcDbLine
 10
1487.644116516375
 20
531.6218895199904
 30
0.0
 11
1487.644116516375
 21
546.6218895199913
 31
0.0
  0
LINE
  5
32F76
330
1F
100
AcDbEntity
  8
CENTER
 48
3.0
100
AcDbLine
 10
1465.644116516375
 20
619.1218895199904
 30
0.0
 11
1497.644116516375
 21
619.1218895199904
 31
0.0
  0
ARC
  5
32F77
330
1F
100
AcDbEntity
  8
CONTINUOUS1
 48
3.0
100
AcDbCircle
 10
1481.644116516375
 20
611.6218895199904
 30
0.0
 40
6.0
100
AcDbArc
 50
180.0
 51
0.0
  0
ARC
  5
32F78
330
1F
100
AcDbEntity
  8
CONTINUOUS1
 48
3.0
100
AcDbCircle
 10
1481.644116516375
 20
626.6218895199913
 30
0.0
 40
6.0
100
AcDbArc
 50
0.0
 51
180.0
  0
LINE
  5
32F79
330
1F
100
AcDbEntity
  8
CENTER
 48
3.0
100
AcDbLine
 10
1481.644116516375
 20
595.6218895199904
 30
0.0
 11
1481.644116516375
 21
642.6218895199913
 31
0.0
  0
LINE
  5
32F7A
330
1F
100
AcDbEntity
  8
CONTINUOUS1
 48
3.0
100
AcDbLine
 10
1475.644116516375
 20
611.6218895199904
 30
0.0
 11
1475.644116516375
 21
626.6218895199913
 31
0.0
  0
LINE
  5
32F7B
330
1F
100
AcDbEntity
  8
CONTINUOUS1
 48
3.0
100
AcDbLine
 10
1487.644116516375
 20
611.6218895199904
 30
0.0
 11
1487.644116516375
 21
626.6218895199913
 31
0.0
  0
ARC
  5
32F7F
330
1F
100
AcDbEntity
  8
CONTINUOUS1
 48
3.0
100
AcDbCircle
 10
1355.644116516375
 20
720.8718895199904
 30
0.0
 40
13.24999999999993
100
AcDbArc
 50
62.08989999999655
 51
117.9099999999845
  0
LINE
  5
32F81
330
1F
100
AcDbEntity
  8
CONTINUOUS1
 48
3.0
100
AcDbLine
 10
1348.644116516375
 20
730.1218895199903
 30
0.0
 11
1362.644116516375
 21
730.1218895199903
 31
0.0
  0
LINE
  5
32F82
330
1F
100
AcDbEntity
  8
CONTINUOUS1
 48
3.0
100
AcDbLine
 10
1362.644116516375
 20
730.1218895199903
 30
0.0
 11
1348.644116516375
 21
730.1218895199903
 31
0.0
  0
ARC
  5
32F83
330
1F
100
AcDbEntity
  8
CONTINUOUS1
 48
3.0
100
AcDbCircle
 10
1350.144116516375
 20
731.2548895199911
 30
0.0
 40
1.499999999999392
100
AcDbArc
 50
117.9099999999597
 51
180.0
  0
LINE
  5
32F84
330
1F
100
AcDbEntity
  8
CONTINUOUS1
 48
3.0
100
AcDbLine
 10
1348.644116516375
 20
727.1218895199904
 30
0.0
 11
1347.344116516375
 21
727.1218895199904
 31
0.0
  0
LINE
  5
32F85
330
1F
100
AcDbEntity
  8
CONTINUOUS1
 48
3.0
100
AcDbLine
 10
1348.644116516375
 20
730.6218895199904
 30
0.0
 11
1348.644116516375
 21
730.1218895199903
 31
0.0
  0
LINE
  5
32F86
330
1F
100
AcDbEntity
  8
CONTINUOUS1
 48
3.0
100
AcDbLine
 10
1348.644116516375
 20
731.2548895199911
 30
0.0
 11
1348.644116516375
 21
730.1218895199903
 31
0.0
  0
LINE
  5
32F89
330
1F
100
AcDbEntity
  8
CONTINUOUS1
 48
3.0
100
AcDbLine
 10
1414.644116516375
 20
762.7421803549148
 30
0.0
 11
1414.644116516375
 21
690.1218895199904
 31
0.0
  0
LINE
  5
32F8A
330
1F
100
AcDbEntity
  8
CONTINUOUS1
 48
3.0
100
AcDbLine
 10
1418.644116516375
 20
762.7421803549148
 30
0.0
 11
1418.644116516375
 21
670.6218895199904
 31
0.0
  0
LINE
  5
32F8D
330
1F
100
AcDbEntity
  8
CONTINUOUS1
 48
3.0
100
AcDbLine
 10
1414.644116516375
 20
690.1218895199904
 30
0.0
 11
1362.644116516375
 21
690.1218895199904
 31
0.0
  0
LINE
  5
32F8E
330
1F
100
AcDbEntity
  8
CONTINUOUS1
 48
3.0
100
AcDbLine
 10
1414.644116516375
 20
727.1218895199904
 30
0.0
 11
1362.644116516375
 21
727.1218895199904
 31
0.0
  0
ARC
  5
32F90
330
1F
100
AcDbEntity
  8
CONTINUOUS1
 48
3.0
100
AcDbCircle
 10
1361.144116516375
 20
731.2548895199911
 30
0.0
 40
1.5
100
AcDbArc
 50
0.0
 51
62.08989999987844
  0
LINE
  5
32F92
330
1F
100
AcDbEntity
  8
CONTINUOUS1
 48
3.0
100
AcDbLine
 10
1362.644116516375
 20
730.6218895199904
 30
0.0
 11
1362.644116516375
 21
730.1218895199903
 31
0.0
  0
LINE
  5
32F93
330
1F
100
AcDbEntity
  8
CONTINUOUS1
 48
3.0
100
AcDbLine
 10
1362.644116516375
 20
731.2548895199911
 30
0.0
 11
1362.644116516375
 21
730.1218895199903
 31
0.0
  0
ARC
  5
32F94
330
1F
100
AcDbEntity
  8
CONTINUOUS1
 48
3.0
100
AcDbCircle
 10
1418.644116516375
 20
670.6218895199904
 30
0.0
 40
4.0
100
AcDbArc
 50
180.0
 51
270.0
  0
ARC
  5
32F95
330
1F
100
AcDbEntity
  8
CONTINUOUS1
 48
3.0
100
AcDbCircle
 10
1423.644116516375
 20
675.6218895199904
 30
0.0
 40
5.0
100
AcDbArc
 50
180.0
 51
270.0
  0
LINE
  5
32F97
330
1F
100
AcDbEntity
  8
CONTINUOUS1
 48
3.0
100
AcDbLine
 10
1414.644116516375
 20
690.1218895199904
 30
0.0
 11
1414.644116516375
 21
670.6218895199904
 31
0.0
  0
LINE
  5
32F98
330
1F
100
AcDbEntity
  8
CONTINUOUS1
 48
3.0
100
AcDbLine
 10
1784.644116516375
 20
727.1218895199904
 30
0.0
 11
1418.644116516375
 21
727.1218895199904
 31
0.0
  0
LINE
  5
32F99
330
1F
100
AcDbEntity
  8
CONTINUOUS1
 48
3.0
100
AcDbLine
 10
1418.644116516375
 20
701.1808895199906
 30
0.0
 11
1414.644116516375
 21
701.1808895199906
 31
0.0
  0
LINE
  5
32F9C
330
1F
100
AcDbEntity
  8
CONTINUOUS1
 48
3.0
100
AcDbLine
 10
1418.644116516375
 20
666.6218895199904
 30
0.0
 11
1435.144116516375
 21
666.6218895199904
 31
0.0
  0
LINE
  5
32F9D
330
1F
100
AcDbEntity
  8
CONTINUOUS1
 48
3.0
100
AcDbLine
 10
1418.644116516375
 20
670.6218895199904
 30
0.0
 11
1435.644116516375
 21
670.6218895199904
 31
0.0
  0
LINE
  5
32FA0
330
1F
100
AcDbEntity
  8
CONTINUOUS1
 48
3.0
100
AcDbLine
 10
1435.644116516375
 20
670.6218895199904
 30
0.0
 11
1438.644116516375
 21
670.6218895199904
 31
0.0
  0
LINE
  5
32FA1
330
1F
100
AcDbEntity
  8
CONTINUOUS1
 48
3.0
100
AcDbLine
 10
1435.644116516375
 20
670.6218895199904
 30
0.0
 11
1435.644116516375
 21
666.6218895199904
 31
0.0
  0
LINE
  5
32FA2
330
1F
100
AcDbEntity
  8
CONTINUOUS1
 48
3.0
100
AcDbLine
 10
1435.644116516375
 20
666.6218895199904
 30
0.0
 11
1438.644116516375
 21
666.6218895199904
 31
0.0
  0
LINE
  5
32FA3
330
1F
100
AcDbEntity
  8
CONTINUOUS1
 48
3.0
100
AcDbLine
 10
1435.144116516375
 20
670.6218895199904
 30
0.0
 11
1435.144116516375
 21
666.6218895199904
 31
0.0
  0
LINE
  5
32FA4
330
1F
100
AcDbEntity
  8
CONTINUOUS1
 48
3.0
100
AcDbLine
 10
1436.344116516375
 20
666.6218895199904
 30
0.0
 11
1438.644116516375
 21
666.6218895199904
 31
0.0
  0
LINE
  5
32FA5
330
1F
100
AcDbEntity
  8
CONTINUOUS1
 48
3.0
100
AcDbLine
 10
1438.644116516375
 20
671.4218895199906
 30
0.0
 11
1438.644116516375
 21
666.6218895199904
 31
0.0
  0
LINE
  5
32FC8
330
1F
100
AcDbEntity
  8
CONTINUOUS1
 48
3.0
100
AcDbLine
 10
1854.644116516375
 20
727.1218895199904
 30
0.0
 11
1854.644116516375
 21
493.6218895199904
 31
0.0
  0
LINE
  5
32FC9
330
1F
100
AcDbEntity
  8
CONTINUOUS1
 48
3.0
100
AcDbLine
 10
1840.644116516375
 20
727.1218895199904
 30
0.0
 11
1840.644116516375
 21
493.6218895199904
 31
0.0
  0
LINE
  5
32FCA
330
1F
100
AcDbEntity
  8
CONTINUOUS1
 48
3.0
100
AcDbLine
 10
1855.944116516376
 20
727.1218895199904
 30
0.0
 11
1855.944116516376
 21
493.6218895199904
 31
0.0
  0
LINE
  5
32FCB
330
1F
100
AcDbEntity
  8
CONTINUOUS1
 48
3.0
100
AcDbLine
 10
1855.944116516376
 20
670.1218895199904
 30
0.0
 11
1855.944116516376
 21
493.6218895199904
 31
0.0
  0
LINE
  5
32FCC
330
1F
100
AcDbEntity
  8
CONTINUOUS1
 48
3.0
100
AcDbLine
 10
1855.944116516376
 20
670.1218895199904
 30
0.0
 11
1855.944116516376
 21
493.6218895199904
 31
0.0
  0
LINE
  5
32FCD
330
1F
100
AcDbEntity
  8
CONTINUOUS1
 48
3.0
100
AcDbLine
 10
1765.644116516375
 20
666.6218895199904
 30
0.0
 11
1765.644116516375
 21
397.1218895199904
 31
0.0
  0
LINE
  5
32FCE
330
1F
100
AcDbEntity
  8
CONTINUOUS1
 48
3.0
100
AcDbLine
 10
1766.144116516375
 20
666.6218895199904
 30
0.0
 11
1766.144116516375
 21
395.6218895199904
 31
0.0
  0
LINE
  5
32FCF
330
1F
100
AcDbEntity
  8
CONTINUOUS1
 48
3.0
100
AcDbLine
 10
1766.944116516376
 20
666.6218895199904
 30
0.0
 11
1766.944116516376
 21
493.6218895199904
 31
0.0
  0
ARC
  5
32FD0
330
1F
100
AcDbEntity
  8
CONTINUOUS1
 48
3.0
100
AcDbCircle
 10
1823.484116516375
 20
440.6218895199904
 30
0.0
 40
8.835939999999936
100
AcDbArc
 50
90.0
 51
270.0
  0
LINE
  5
32FD1
330
1F
100
AcDbEntity
  8
CONTINUOUS1
 48
3.0
100
AcDbLine
 10
1840.644116516375
 20
493.6218895199904
 30
0.0
 11
1766.944116516376
 21
493.6218895199904
 31
0.0
  0
LINE
  5
32FD2
330
1F
100
AcDbEntity
  8
CONTINUOUS1
 48
3.0
100
AcDbLine
 10
1766.944116516376
 20
493.6218895199904
 30
0.0
 11
1766.944116516376
 21
395.6218895199904
 31
0.0
  0
LINE
  5
32FD3
330
1F
100
AcDbEntity
  8
CONTINUOUS1
 48
3.0
100
AcDbLine
 10
1751.644116516375
 20
392.1218895199904
 30
0.0
 11
1751.644116516375
 21
390.6218895199904
 31
0.0
  0
LINE
  5
32FD4
330
1F
100
AcDbEntity
  8
CENTER
 48
3.0
100
AcDbLine
 10
1705.644116516375
 20
539.1218895199909
 30
0.0
 11
1737.644116516375
 21
539.1218895199909
 31
0.0
  0
LINE
  5
32FD5
330
1F
100
AcDbEntity
  8
CENTER
 48
3.0
100
AcDbLine
 10
1705.644116516375
 20
619.1218895199908
 30
0.0
 11
1737.644116516375
 21
619.1218895199908
 31
0.0
  0
ARC
  5
32FD6
330
1F
100
AcDbEntity
  8
CONTINUOUS1
 48
3.0
100
AcDbCircle
 10
1721.644116516375
 20
531.6218895199904
 30
0.0
 40
6.0
100
AcDbArc
 50
270.0
 51
0.0
  0
ARC
  5
32FD7
330
1F
100
AcDbEntity
  8
CONTINUOUS1
 48
3.0
100
AcDbCircle
 10
1721.644116516375
 20
546.6218895199913
 30
0.0
 40
6.0
100
AcDbArc
 50
0.0
 51
90.0
  0
LINE
  5
32FD8
330
1F
100
AcDbEntity
  8
CENTER
 48
3.0
100
AcDbLine
 10
1721.644116516375
 20
515.6218895199908
 30
0.0
 11
1721.644116516375
 21
562.6218895199918
 31
0.0
  0
ARC
  5
32FD9
330
1F
100
AcDbEntity
  8
CONTINUOUS1
 48
3.0
100
AcDbCircle
 10
1721.644116516375
 20
546.6218895199913
 30
0.0
 40
5.99999999999909
100
AcDbArc
 50
90.0
 51
180.0
  0
ARC
  5
32FDA
330
1F
100
AcDbEntity
  8
CONTINUOUS1
 48
3.0
100
AcDbCircle
 10
1721.644116516375
 20
531.6218895199904
 30
0.0
 40
6.0
100
AcDbArc
 50
180.0
 51
270.0
  0
LINE
  5
32FDB
330
1F
100
AcDbEntity
  8
CONTINUOUS1
 48
3.0
100
AcDbLine
 10
1720.644116516375
 20
525.6218895199904
 30
0.0
 11
1721.644116516375
 21
525.6218895199904
 31
0.0
  0
LINE
  5
32FDC
330
1F
100
AcDbEntity
  8
CONTINUOUS1
 48
3.0
100
AcDbLine
 10
1727.644116516375
 20
546.6218895199913
 30
0.0
 11
1727.644116516375
 21
531.6218895199904
 31
0.0
  0
LINE
  5
32FDD
330
1F
100
AcDbEntity
  8
CONTINUOUS1
 48
3.0
100
AcDbLine
 10
1715.644116516375
 20
546.6218895199913
 30
0.0
 11
1715.644116516375
 21
531.6218895199904
 31
0.0
  0
LINE
  5
32FDE
330
1F
100
AcDbEntity
  8
CENTER
 48
3.0
100
AcDbLine
 10
1721.644116516375
 20
595.6218895199908
 30
0.0
 11
1721.644116516375
 21
642.6218895199918
 31
0.0
  0
ARC
  5
32FDF
330
1F
100
AcDbEntity
  8
CONTINUOUS1
 48
3.0
100
AcDbCircle
 10
1721.644116516375
 20
611.6218895199904
 30
0.0
 40
6.0
100
AcDbArc
 50
180.0
 51
0.0
  0
ARC
  5
32FE0
330
1F
100
AcDbEntity
  8
CONTINUOUS1
 48
3.0
100
AcDbCircle
 10
1721.644116516375
 20
626.6218895199913
 30
0.0
 40
6.0
100
AcDbArc
 50
0.0
 51
180.0
  0
LINE
  5
32FE1
330
1F
100
AcDbEntity
  8
CONTINUOUS1
 48
3.0
100
AcDbLine
 10
1720.644116516375
 20
552.6218895199904
 30
0.0
 11
1721.644116516375
 21
552.6218895199904
 31
0.0
  0
LINE
  5
32FE2
330
1F
100
AcDbEntity
  8
CONTINUOUS1
 48
3.0
100
AcDbLine
 10
1727.644116516375
 20
626.6218895199913
 30
0.0
 11
1727.644116516375
 21
611.6218895199904
 31
0.0
  0
LINE
  5
32FE3
330
1F
100
AcDbEntity
  8
CONTINUOUS1
 48
3.0
100
AcDbLine
 10
1715.644116516375
 20
626.6218895199913
 30
0.0
 11
1715.644116516375
 21
611.6218895199904
 31
0.0
  0
ARC
  5
32FE4
330
1F
100
AcDbEntity
  8
CONTINUOUS1
 48
3.0
100
AcDbCircle
 10
1847.644116516375
 20
440.6218895199913
 30
0.0
 40
18.0000000000016
100
AcDbArc
 50
342.2590000000114
 51
17.74090000001634
  0
ARC
  5
32FE5
330
1F
100
AcDbEntity
  8
CONTINUOUS1
 48
3.0
100
AcDbCircle
 10
1844.644116516375
 20
440.6218895199904
 30
0.0
 40
18.00000000000104
100
AcDbArc
 50
162.2590000000114
 51
197.7409999999886
  0
LINE
  5
32FE6
330
1F
100
AcDbEntity
  8
CONTINUOUS1
 48
3.0
100
AcDbLine
 10
1865.644116516375
 20
449.6218895199904
 30
0.0
 11
1865.644116516375
 21
431.6218895199904
 31
0.0
  0
LINE
  5
32FE7
330
1F
100
AcDbEntity
  8
CONTINUOUS1
 48
3.0
100
AcDbLine
 10
1854.444116516376
 20
455.4218895199905
 30
0.0
 11
1854.444116516376
 21
425.8218895199902
 31
0.0
  0
LINE
  5
32FE8
330
1F
100
AcDbEntity
  8
CONTINUOUS1
 48
3.0
100
AcDbLine
 10
1855.644116516375
 20
456.6218895199904
 30
0.0
 11
1855.644116516375
 21
424.6218895199904
 31
0.0
  0
LINE
  5
32FE9
330
1F
100
AcDbEntity
  8
CONTINUOUS1
 48
3.0
100
AcDbLine
 10
1840.844116516375
 20
455.4218895199905
 30
0.0
 11
1840.844116516375
 21
425.8218895199902
 31
0.0
  0
LINE
  5
32FEA
330
1F
100
AcDbEntity
  8
CONTINUOUS1
 48
3.0
100
AcDbLine
 10
1839.644116516375
 20
456.6218895199904
 30
0.0
 11
1839.644116516375
 21
424.6218895199904
 31
0.0
  0
LINE
  5
32FEB
330
1F
100
AcDbEntity
  8
CONTINUOUS1
 48
3.0
100
AcDbLine
 10
1902.844116516376
 20
398.1718895199906
 30
0.0
 11
1902.844116516376
 21
483.0718895199902
 31
0.0
  0
LINE
  5
32FEC
330
1F
100
AcDbEntity
  8
CONTINUOUS1
 48
3.0
100
AcDbLine
 10
1905.744116516375
 20
432.0218895199919
 30
0.0
 11
1905.744116516375
 21
440.6218895199904
 31
0.0
  0
LINE
  5
32FED
330
1F
100
AcDbEntity
  8
CONTINUOUS1
 48
3.0
100
AcDbLine
 10
1867.944116516376
 20
432.0218895199919
 30
0.0
 11
1867.944116516376
 21
440.6218895199904
 31
0.0
  0
LINE
  5
32FEE
330
1F
100
AcDbEntity
  8
CONTINUOUS1
 48
3.0
100
AcDbLine
 10
1870.844116516376
 20
398.1718895199906
 30
0.0
 11
1870.844116516376
 21
483.0718895199902
 31
0.0
  0
LINE
  5
32FEF
330
1F
100
AcDbEntity
  8
CONTINUOUS1
 48
3.0
100
AcDbLine
 10
1908.044116516376
 20
448.6218895199904
 30
0.0
 11
1908.044116516376
 21
432.6218895199904
 31
0.0
  0
LINE
  5
32FF0
330
1F
100
AcDbEntity
  8
CONTINUOUS1
 48
3.0
100
AcDbLine
 10
1920.044116516376
 20
448.6218895199904
 30
0.0
 11
1920.044116516376
 21
432.6218895199904
 31
0.0
  0
LINE
  5
32FF1
330
1F
100
AcDbEntity
  8
CONTINUOUS1
 48
3.0
100
AcDbLine
 10
1836.644116516375
 20
451.5908895199904
 30
0.0
 11
1836.644116516375
 21
429.6518895199901
 31
0.0
  0
LINE
  5
32FF2
330
1F
100
AcDbEntity
  8
CONTINUOUS1
 48
3.0
100
AcDbLine
 10
1826.644116516375
 20
449.6218895199904
 30
0.0
 11
1826.644116516375
 21
431.6218895199904
 31
0.0
  0
LINE
  5
32FF3
330
1F
100
AcDbEntity
  8
CONTINUOUS1
 48
3.0
100
AcDbLine
 10
1908.044116516376
 20
452.6218895199904
 30
0.0
 11
1908.044116516376
 21
428.6218895199904
 31
0.0
  0
LINE
  5
32FF4
330
1F
100
AcDbEntity
  8
CONTINUOUS1
 48
3.0
100
AcDbLine
 10
1905.744116516375
 20
452.6218895199904
 30
0.0
 11
1905.744116516375
 21
428.6218895199904
 31
0.0
  0
LINE
  5
32FF5
330
1F
100
AcDbEntity
  8
CONTINUOUS1
 48
3.0
100
AcDbLine
 10
1867.944116516376
 20
452.6218895199904
 30
0.0
 11
1867.944116516376
 21
428.6218895199904
 31
0.0
  0
LINE
  5
32FF6
330
1F
100
AcDbEntity
  8
CONTINUOUS1
 48
3.0
100
AcDbLine
 10
1865.644116516375
 20
452.6218895199904
 30
0.0
 11
1865.644116516375
 21
428.6218895199904
 31
0.0
  0
LINE
  5
32FF7
330
1F
100
AcDbEntity
  8
CONTINUOUS1
 48
3.0
100
AcDbLine
 10
1919.044116516376
 20
431.6218895199904
 30
0.0
 11
1909.044116516376
 21
431.6218895199904
 31
0.0
  0
LINE
  5
32FF8
330
1F
100
AcDbEntity
  8
CONTINUOUS1
 48
3.0
100
AcDbLine
 10
1919.044116516376
 20
432.6218895199904
 30
0.0
 11
1909.044116516376
 21
432.6218895199904
 31
0.0
  0
LINE
  5
32FF9
330
1F
100
AcDbEntity
  8
CONTINUOUS1
 48
3.0
100
AcDbLine
 10
1919.044116516376
 20
434.6218895199903
 30
0.0
 11
1909.044116516376
 21
434.6218895199903
 31
0.0
  0
LINE
  5
32FFA
330
1F
100
AcDbEntity
  8
CONTINUOUS1
 48
3.0
100
AcDbLine
 10
1919.044116516376
 20
436.6218895199904
 30
0.0
 11
1909.044116516376
 21
436.6218895199904
 31
0.0
  0
LINE
  5
32FFB
330
1F
100
AcDbEntity
  8
CONTINUOUS1
 48
3.0
100
AcDbLine
 10
1865.644116516375
 20
428.6218895199904
 30
0.0
 11
1867.944116516376
 21
428.6218895199904
 31
0.0
  0
LINE
  5
32FFC
330
1F
100
AcDbEntity
  8
CONTINUOUS1
 48
3.0
100
AcDbLine
 10
1839.644116516375
 20
424.6218895199904
 30
0.0
 11
1855.644116516375
 21
424.6218895199904
 31
0.0
  0
LINE
  5
32FFD
330
1F
100
AcDbEntity
  8
CONTINUOUS1
 48
3.0
100
AcDbLine
 10
1864.784116516376
 20
435.1368895199907
 30
0.0
 11
1865.644116516375
 21
431.6218895199904
 31
0.0
  0
LINE
  5
32FFE
330
1F
100
AcDbEntity
  8
CONTINUOUS1
 48
3.0
100
AcDbLine
 10
1865.644116516375
 20
431.6218895199904
 30
0.0
 11
1864.504116516375
 21
429.6518895199901
 31
0.0
  0
LINE
  5
32FFF
330
1F
100
AcDbEntity
  8
CONTINUOUS1
 48
3.0
100
AcDbLine
 10
1864.504116516375
 20
429.6518895199901
 30
0.0
 11
1855.644116516375
 21
429.6518895199901
 31
0.0
  0
LINE
  5
33000
330
1F
100
AcDbEntity
  8
CONTINUOUS1
 48
3.0
100
AcDbLine
 10
1864.784116516376
 20
435.1368895199907
 30
0.0
 11
1855.644116516375
 21
435.1368895199907
 31
0.0
  0
LINE
  5
33001
330
1F
100
AcDbEntity
  8
CONTINUOUS1
 48
3.0
100
AcDbLine
 10
1840.844116516375
 20
425.8218895199902
 30
0.0
 11
1854.444116516376
 21
425.8218895199902
 31
0.0
  0
LINE
  5
33002
330
1F
100
AcDbEntity
  8
CONTINUOUS1
 48
3.0
100
AcDbLine
 10
1826.554116516375
 20
431.7858895199901
 30
0.0
 11
1827.784116516376
 21
429.6518895199901
 31
0.0
  0
LINE
  5
33003
330
1F
100
AcDbEntity
  8
CONTINUOUS1
 48
3.0
100
AcDbLine
 10
1827.784116516376
 20
429.6518895199901
 30
0.0
 11
1839.644116516375
 21
429.6518895199901
 31
0.0
  0
LINE
  5
33004
330
1F
100
AcDbEntity
  8
CONTINUOUS1
 48
3.0
100
AcDbLine
 10
1827.504116516375
 20
435.1368895199907
 30
0.0
 11
1836.644116516375
 21
435.1368895199907
 31
0.0
  0
LINE
  5
33005
330
1F
100
AcDbEntity
  8
CONTINUOUS1
 48
3.0
100
AcDbLine
 10
1827.504116516375
 20
435.1368895199907
 30
0.0
 11
1826.644116516375
 21
431.6218895199904
 31
0.0
  0
LINE
  5
33006
330
1F
100
AcDbEntity
  8
CONTINUOUS1
 48
3.0
100
AcDbLine
 10
1823.484116516375
 20
431.7858895199901
 30
0.0
 11
1826.554116516375
 21
431.7858895199901
 31
0.0
  0
ARC
  5
33007
330
1F
100
AcDbEntity
  8
CONTINUOUS1
 48
3.0
100
AcDbCircle
 10
1897.844116516376
 20
398.1718895199906
 30
0.0
 40
5.000000000000523
100
AcDbArc
 50
296.1040000000519
 51
0.0
  0
ARC
  5
33008
330
1F
100
AcDbEntity
  8
CONTINUOUS1
 48
3.0
100
AcDbCircle
 10
1886.844116516376
 20
420.6218895199904
 30
0.0
 40
30.0
100
AcDbArc
 50
270.0
 51
296.1039999999558
  0
ARC
  5
33009
330
1F
100
AcDbEntity
  8
CONTINUOUS1
 48
3.0
100
AcDbCircle
 10
1875.844116516375
 20
398.1718895199906
 30
0.0
 40
5.0
100
AcDbArc
 50
180.0
 51
243.895999999948
  0
ARC
  5
3300A
330
1F
100
AcDbEntity
  8
CONTINUOUS1
 48
3.0
100
AcDbCircle
 10
1886.844116516376
 20
420.6218895199904
 30
0.0
 40
29.99999999999996
100
AcDbArc
 50
243.8960000000441
 51
270.0
  0
ARC
  5
3300B
330
1F
100
AcDbEntity
  8
CONTINUOUS1
 48
3.0
100
AcDbCircle
 10
1909.044116516376
 20
432.6218895199904
 30
0.0
 40
1.0
100
AcDbArc
 50
180.0
 51
270.0
  0
LINE
  5
3300C
330
1F
100
AcDbEntity
  8
CONTINUOUS1
 48
3.0
100
AcDbLine
 10
1869.944116516376
 20
432.0218895199919
 30
0.0
 11
1867.944116516376
 21
432.0218895199919
 31
0.0
  0
LINE
  5
3300D
330
1F
100
AcDbEntity
  8
CONTINUOUS1
 48
3.0
100
AcDbLine
 10
1903.744116516375
 20
424.5218895199919
 30
0.0
 11
1903.744116516375
 21
432.0218895199919
 31
0.0
  0
LINE
  5
3300E
330
1F
100
AcDbEntity
  8
CONTINUOUS1
 48
3.0
100
AcDbLine
 10
1903.744116516375
 20
432.0218895199919
 30
0.0
 11
1905.744116516375
 21
432.0218895199919
 31
0.0
  0
LINE
  5
3300F
330
1F
100
AcDbEntity
  8
CONTINUOUS1
 48
3.0
100
AcDbLine
 10
1902.844116516376
 20
424.5218895199919
 30
0.0
 11
1903.744116516375
 21
424.5218895199919
 31
0.0
  0
LINE
  5
33010
330
1F
100
AcDbEntity
  8
CONTINUOUS1
 48
3.0
100
AcDbLine
 10
1869.944116516376
 20
424.5218895199919
 30
0.0
 11
1869.944116516376
 21
432.0218895199919
 31
0.0
  0
LINE
  5
33011
330
1F
100
AcDbEntity
  8
CONTINUOUS1
 48
3.0
100
AcDbLine
 10
1870.844116516376
 20
424.5218895199919
 30
0.0
 11
1869.944116516376
 21
424.5218895199919
 31
0.0
  0
LINE
  5
33012
330
1F
100
AcDbEntity
  8
CONTINUOUS1
 48
3.0
100
AcDbLine
 10
1905.744116516375
 20
428.6218895199904
 30
0.0
 11
1908.044116516376
 21
428.6218895199904
 31
0.0
  0
ARC
  5
33013
330
1F
100
AcDbEntity
  8
CONTINUOUS1
 48
3.0
100
AcDbCircle
 10
1919.044116516376
 20
432.6218895199904
 30
0.0
 40
1.0
100
AcDbArc
 50
270.0
 51
0.0
  0
LINE
  5
33014
330
1F
100
AcDbEntity
  8
CONTINUOUS1
 48
3.0
100
AcDbLine
 10
1919.044116516376
 20
449.6218895199904
 30
0.0
 11
1909.044116516376
 21
449.6218895199904
 31
0.0
  0
LINE
  5
33015
330
1F
100
AcDbEntity
  8
CONTINUOUS1
 48
3.0
100
AcDbLine
 10
1919.044116516376
 20
448.6218895199904
 30
0.0
 11
1909.044116516376
 21
448.6218895199904
 31
0.0
  0
LINE
  5
33016
330
1F
100
AcDbEntity
  8
CONTINUOUS1
 48
3.0
100
AcDbLine
 10
1919.044116516376
 20
446.6218895199904
 30
0.0
 11
1909.044116516376
 21
446.6218895199904
 31
0.0
  0
LINE
  5
33017
330
1F
100
AcDbEntity
  8
CONTINUOUS1
 48
3.0
100
AcDbLine
 10
1919.044116516376
 20
444.6218895199904
 30
0.0
 11
1909.044116516376
 21
444.6218895199904
 31
0.0
  0
LINE
  5
33018
330
1F
100
AcDbEntity
  8
CONTINUOUS1
 48
3.0
100
AcDbLine
 10
1919.044116516376
 20
442.6218895199903
 30
0.0
 11
1909.044116516376
 21
442.6218895199903
 31
0.0
  0
LINE
  5
33019
330
1F
100
AcDbEntity
  8
CONTINUOUS1
 48
3.0
100
AcDbLine
 10
1919.044116516376
 20
440.6218895199904
 30
0.0
 11
1909.044116516376
 21
440.6218895199904
 31
0.0
  0
LINE
  5
3301A
330
1F
100
AcDbEntity
  8
CONTINUOUS1
 48
3.0
100
AcDbLine
 10
1919.044116516376
 20
438.6218895199903
 30
0.0
 11
1909.044116516376
 21
438.6218895199903
 31
0.0
  0
LINE
  5
3301B
330
1F
100
AcDbEntity
  8
CONTINUOUS1
 48
3.0
100
AcDbLine
 10
1865.644116516375
 20
452.6218895199904
 30
0.0
 11
1867.944116516376
 21
452.6218895199904
 31
0.0
  0
LINE
  5
3301C
330
1F
100
AcDbEntity
  8
CONTINUOUS1
 48
3.0
100
AcDbLine
 10
1854.644116516375
 20
493.6218895199904
 30
0.0
 11
1854.644116516375
 21
455.4218895199905
 31
0.0
  0
LINE
  5
3301D
330
1F
100
AcDbEntity
  8
CONTINUOUS1
 48
3.0
100
AcDbLine
 10
1840.644116516375
 20
493.6218895199904
 30
0.0
 11
1840.644116516375
 21
456.6218895199904
 31
0.0
  0
LINE
  5
3301E
330
1F
100
AcDbEntity
  8
CONTINUOUS1
 48
3.0
100
AcDbLine
 10
1865.644116516375
 20
449.6218895199904
 30
0.0
 11
1864.784116516376
 21
446.10688951999
 31
0.0
  0
LINE
  5
3301F
330
1F
100
AcDbEntity
  8
CONTINUOUS1
 48
3.0
100
AcDbLine
 10
1865.644116516375
 20
449.6218895199904
 30
0.0
 11
1864.504116516375
 21
451.5908895199904
 31
0.0
  0
LINE
  5
33020
330
1F
100
AcDbEntity
  8
CONTINUOUS1
 48
3.0
100
AcDbLine
 10
1864.784116516376
 20
446.10688951999
 30
0.0
 11
1855.644116516375
 21
446.10688951999
 31
0.0
  0
LINE
  5
33021
330
1F
100
AcDbEntity
  8
CONTINUOUS1
 48
3.0
100
AcDbLine
 10
1840.844116516375
 20
455.4218895199905
 30
0.0
 11
1854.444116516376
 21
455.4218895199905
 31
0.0
  0
LINE
  5
33022
330
1F
100
AcDbEntity
  8
CONTINUOUS1
 48
3.0
100
AcDbLine
 10
1839.644116516375
 20
456.6218895199904
 30
0.0
 11
1855.644116516375
 21
456.6218895199904
 31
0.0
  0
LINE
  5
33023
330
1F
100
AcDbEntity
  8
CONTINUOUS1
 48
3.0
100
AcDbLine
 10
1864.504116516375
 20
451.5908895199904
 30
0.0
 11
1855.644116516375
 21
451.5908895199904
 31
0.0
  0
LINE
  5
33024
330
1F
100
AcDbEntity
  8
CONTINUOUS1
 48
3.0
100
AcDbLine
 10
1855.944116516376
 20
493.6218895199904
 30
0.0
 11
1854.644116516375
 21
493.6218895199904
 31
0.0
  0
LINE
  5
33025
330
1F
100
AcDbEntity
  8
CONTINUOUS1
 48
3.0
100
AcDbLine
 10
1826.644116516375
 20
449.6218895199904
 30
0.0
 11
1827.504116516375
 21
446.10688951999
 31
0.0
  0
LINE
  5
33026
330
1F
100
AcDbEntity
  8
CONTINUOUS1
 48
3.0
100
AcDbLine
 10
1826.644116516375
 20
449.6218895199904
 30
0.0
 11
1827.784116516376
 21
451.5908895199904
 31
0.0
  0
LINE
  5
33027
330
1F
100
AcDbEntity
  8
CONTINUOUS1
 48
3.0
100
AcDbLine
 10
1827.504116516375
 20
446.10688951999
 30
0.0
 11
1836.644116516375
 21
446.10688951999
 31
0.0
  0
LINE
  5
33028
330
1F
100
AcDbEntity
  8
CONTINUOUS1
 48
3.0
100
AcDbLine
 10
1827.784116516376
 20
451.5908895199904
 30
0.0
 11
1839.644116516375
 21
451.5908895199904
 31
0.0
  0
LINE
  5
33029
330
1F
100
AcDbEntity
  8
CONTINUOUS1
 48
3.0
100
AcDbLine
 10
1823.484116516375
 20
449.4578895199906
 30
0.0
 11
1826.554116516375
 21
449.4578895199906
 31
0.0
  0
ARC
  5
3302A
330
1F
100
AcDbEntity
  8
CONTINUOUS1
 48
3.0
100
AcDbCircle
 10
1886.844116516376
 20
460.6218895199904
 30
0.0
 40
30.0000000000025
100
AcDbArc
 50
63.89609999996152
 51
90.0
  0
ARC
  5
3302B
330
1F
100
AcDbEntity
  8
CONTINUOUS1
 48
3.0
100
AcDbCircle
 10
1886.844116516376
 20
460.6218895199904
 30
0.0
 40
30.0
100
AcDbArc
 50
90.0
 51
116.1039999999558
  0
ARC
  5
3302C
330
1F
100
AcDbEntity
  8
CONTINUOUS1
 48
3.0
100
AcDbCircle
 10
1875.844116516375
 20
483.0718895199902
 30
0.0
 40
5.00000000000134
100
AcDbArc
 50
116.1040000000519
 51
180.0
  0
ARC
  5
3302D
330
1F
100
AcDbEntity
  8
CONTINUOUS1
 48
3.0
100
AcDbCircle
 10
1897.844116516376
 20
483.0718895199902
 30
0.0
 40
5.0
100
AcDbArc
 50
0.0
 51
63.89609999996152
  0
ARC
  5
3302E
330
1F
100
AcDbEntity
  8
CONTINUOUS1
 48
3.0
100
AcDbCircle
 10
1909.044116516376
 20
448.6218895199904
 30
0.0
 40
1.0
100
AcDbArc
 50
90.0
 51
180.0
  0
LINE
  5
3302F
330
1F
100
AcDbEntity
  8
CONTINUOUS1
 48
3.0
100
AcDbLine
 10
1903.744116516375
 20
456.7218895199898
 30
0.0
 11
1903.744116516375
 21
449.2218895199898
 31
0.0
  0
LINE
  5
33030
330
1F
100
AcDbEntity
  8
CONTINUOUS1
 48
3.0
100
AcDbLine
 10
1903.744116516375
 20
449.2218895199898
 30
0.0
 11
1905.744116516375
 21
449.2218895199898
 31
0.0
  0
LINE
  5
33031
330
1F
100
AcDbEntity
  8
CONTINUOUS1
 48
3.0
100
AcDbLine
 10
1902.844116516376
 20
456.7218895199898
 30
0.0
 11
1903.744116516375
 21
456.7218895199898
 31
0.0
  0
LINE
  5
33032
330
1F
100
AcDbEntity
  8
CONTINUOUS1
 48
3.0
100
AcDbLine
 10
1905.744116516375
 20
449.2218895199898
 30
0.0
 11
1905.744116516375
 21
440.6218895199904
 31
0.0
  0
LINE
  5
33033
330
1F
100
AcDbEntity
  8
CONTINUOUS1
 48
3.0
100
AcDbLine
 10
1869.944116516376
 20
456.7218895199898
 30
0.0
 11
1869.944116516376
 21
449.2218895199898
 31
0.0
  0
LINE
  5
33034
330
1F
100
AcDbEntity
  8
CONTINUOUS1
 48
3.0
100
AcDbLine
 10
1867.944116516376
 20
449.2218895199898
 30
0.0
 11
1867.944116516376
 21
440.6218895199904
 31
0.0
  0
LINE
  5
33035
330
1F
100
AcDbEntity
  8
CONTINUOUS1
 48
3.0
100
AcDbLine
 10
1870.844116516376
 20
456.7218895199898
 30
0.0
 11
1869.944116516376
 21
456.7218895199898
 31
0.0
  0
LINE
  5
33036
330
1F
100
AcDbEntity
  8
CONTINUOUS1
 48
3.0
100
AcDbLine
 10
1869.944116516376
 20
449.2218895199898
 30
0.0
 11
1867.944116516376
 21
449.2218895199898
 31
0.0
  0
LINE
  5
33037
330
1F
100
AcDbEntity
  8
CONTINUOUS1
 48
3.0
100
AcDbLine
 10
1905.744116516375
 20
452.6218895199904
 30
0.0
 11
1908.044116516376
 21
452.6218895199904
 31
0.0
  0
ARC
  5
33038
330
1F
100
AcDbEntity
  8
CONTINUOUS1
 48
3.0
100
AcDbCircle
 10
1919.044116516376
 20
448.6218895199904
 30
0.0
 40
1.0
100
AcDbArc
 50
0.0
 51
90.0
  0
LINE
  5
3303A
330
1F
100
AcDbEntity
  8
CONTINUOUS1
 48
3.0
100
AcDbLine
 10
1840.644116516375
 20
727.1218895199904
 30
0.0
 11
1788.644116516375
 21
727.1218895199904
 31
0.0
  0
LINE
  5
3303B
330
1F
100
AcDbEntity
  8
CONTINUOUS1
 48
3.0
100
AcDbLine
 10
1840.644116516375
 20
690.1218895199904
 30
0.0
 11
1788.644116516375
 21
690.1218895199904
 31
0.0
  0
LINE
  5
33043
330
1F
100
AcDbEntity
  8
CONTINUOUS1
 48
3.0
100
AcDbLine
 10
1638.644116516375
 20
762.7421803549148
 30
0.0
 11
1638.644116516375
 21
727.1218895199904
 31
0.0
  0
LINE
  5
33047
330
1F
100
AcDbEntity
  8
CONTINUOUS1
 48
3.0
100
AcDbLine
 10
1784.644116516375
 20
762.7421803549147
 30
0.0
 11
1784.644116516375
 21
727.1218895199904
 31
0.0
  0
LINE
  5
33048
330
1F
100
AcDbEntity
  8
CONTINUOUS1
 48
3.0
100
AcDbLine
 10
1788.644116516374
 20
762.7421803549147
 30
0.0
 11
1788.644116516375
 21
727.1218895199904
 31
0.0
  0
LINE
  5
3304C
330
1F
100
AcDbEntity
  8
CONTINUOUS1
 48
3.0
100
AcDbLine
 10
1768.144116516375
 20
666.6218895199904
 30
0.0
 11
1784.644116516375
 21
666.6218895199904
 31
0.0
  0
LINE
  5
3304D
330
1F
100
AcDbEntity
  8
CONTINUOUS1
 48
3.0
100
AcDbLine
 10
1767.644116516375
 20
670.6218895199904
 30
0.0
 11
1784.644116516375
 21
670.6218895199904
 31
0.0
  0
LINE
  5
33052
330
1F
100
AcDbEntity
  8
CONTINUOUS1
 48
3.0
100
AcDbLine
 10
1764.644116516375
 20
670.6218895199904
 30
0.0
 11
1767.644116516375
 21
670.6218895199904
 31
0.0
  0
LINE
  5
33053
330
1F
100
AcDbEntity
  8
CONTINUOUS1
 48
3.0
100
AcDbLine
 10
1764.644116516375
 20
666.6218895199904
 30
0.0
 11
1766.944116516376
 21
666.6218895199904
 31
0.0
  0
LINE
  5
33054
330
1F
100
AcDbEntity
  8
CONTINUOUS1
 48
3.0
100
AcDbLine
 10
1767.644116516375
 20
670.6218895199904
 30
0.0
 11
1767.644116516375
 21
666.6218895199904
 31
0.0
  0
LINE
  5
33055
330
1F
100
AcDbEntity
  8
CONTINUOUS1
 48
3.0
100
AcDbLine
 10
1768.144116516375
 20
670.6218895199904
 30
0.0
 11
1768.144116516375
 21
666.6218895199904
 31
0.0
  0
LINE
  5
33056
330
1F
100
AcDbEntity
  8
CONTINUOUS1
 48
3.0
100
AcDbLine
 10
1764.644116516375
 20
666.6218895199904
 30
0.0
 11
1767.644116516375
 21
666.6218895199904
 31
0.0
  0
LINE
  5
33057
330
1F
100
AcDbEntity
  8
CONTINUOUS1
 48
3.0
100
AcDbLine
 10
1764.644116516375
 20
671.4218895199906
 30
0.0
 11
1764.644116516375
 21
666.6218895199904
 31
0.0
  0
ARC
  5
33058
330
1F
100
AcDbEntity
  8
CONTINUOUS1
 48
3.0
100
AcDbCircle
 10
1784.644116516375
 20
670.6218895199904
 30
0.0
 40
4.0
100
AcDbArc
 50
270.0
 51
0.0
  0
LINE
  5
33059
330
1F
100
AcDbEntity
  8
CONTINUOUS1
 48
3.0
100
AcDbLine
 10
1784.644116516375
 20
727.1218895199904
 30
0.0
 11
1784.644116516375
 21
670.6218895199904
 31
0.0
  0
LINE
  5
3305A
330
1F
100
AcDbEntity
  8
CONTINUOUS1
 48
3.0
100
AcDbLine
 10
1788.644116516375
 20
727.1218895199904
 30
0.0
 11
1788.644116516375
 21
690.1218895199904
 31
0.0
  0
LINE
  5
3305B
330
1F
100
AcDbEntity
  8
CONTINUOUS1
 48
3.0
100
AcDbLine
 10
1788.644116516375
 20
690.1218895199904
 30
0.0
 11
1788.644116516375
 21
670.6218895199904
 31
0.0
  0
LINE
  5
3305C
330
1F
100
AcDbEntity
  8
CONTINUOUS1
 48
3.0
100
AcDbLine
 10
1784.644116516375
 20
701.1808895199906
 30
0.0
 11
1788.644116516375
 21
701.1808895199906
 31
0.0
  0
ARC
  5
33062
330
1F
100
AcDbEntity
  8
CONTINUOUS1
 48
3.0
100
AcDbCircle
 10
1853.144116516375
 20
731.2548895199911
 30
0.0
 40
1.5
100
AcDbArc
 50
0.0
 51
62.08989999987844
  0
ARC
  5
33063
330
1F
100
AcDbEntity
  8
CONTINUOUS1
 48
3.0
100
AcDbCircle
 10
1847.644116516375
 20
720.8718895199904
 30
0.0
 40
13.24999999999993
100
AcDbArc
 50
62.08989999999655
 51
117.9099999999845
  0
ARC
  5
33064
330
1F
100
AcDbEntity
  8
CONTINUOUS1
 48
3.0
100
AcDbCircle
 10
1842.144116516375
 20
731.2548895199911
 30
0.0
 40
1.499999999999392
100
AcDbArc
 50
117.9099999999597
 51
180.0
  0
LINE
  5
33066
330
1F
100
AcDbEntity
  8
CONTINUOUS1
 48
3.0
100
AcDbLine
 10
1855.944116516376
 20
727.1218895199904
 30
0.0
 11
1854.644116516375
 21
727.1218895199904
 31
0.0
  0
LINE
  5
33067
330
1F
100
AcDbEntity
  8
CONTINUOUS1
 48
3.0
100
AcDbLine
 10
1840.644116516375
 20
732.1218895199904
 30
0.0
 11
1840.644116516375
 21
727.1218895199904
 31
0.0
  0
LINE
  5
33068
330
1F
100
AcDbEntity
  8
CONTINUOUS1
 48
3.0
100
AcDbLine
 10
1854.644116516375
 20
730.1218895199903
 30
0.0
 11
1840.644116516375
 21
730.1218895199903
 31
0.0
  0
LINE
  5
33069
330
1F
100
AcDbEntity
  8
CONTINUOUS1
 48
3.0
100
AcDbLine
 10
1854.644116516375
 20
730.1218895199903
 30
0.0
 11
1854.644116516375
 21
727.1218895199904
 31
0.0
  0
LINE
  5
3306A
330
1F
100
AcDbEntity
  8
CONTINUOUS1
 48
3.0
100
AcDbLine
 10
1854.644116516375
 20
731.2548895199911
 30
0.0
 11
1854.644116516375
 21
730.1218895199903
 31
0.0
  0
LINE
  5
3306B
330
1F
100
AcDbEntity
  8
CONTINUOUS1
 48
3.0
100
AcDbLine
 10
1840.644116516375
 20
730.6218895199904
 30
0.0
 11
1840.644116516375
 21
730.1218895199903
 31
0.0
  0
LINE
  5
3306C
330
1F
100
AcDbEntity
  8
CONTINUOUS1
 48
3.0
100
AcDbLine
 10
1840.644116516375
 20
731.2548895199911
 30
0.0
 11
1840.644116516375
 21
730.1218895199903
 31
0.0
  0
LINE
  5
3306D
330
1F
100
AcDbEntity
  8
CONTINUOUS1
 48
3.0
100
AcDbLine
 10
1854.644116516375
 20
730.6218895199904
 30
0.0
 11
1854.644116516375
 21
730.1218895199903
 31
0.0
  0
LINE
  5
3306E
330
1F
100
AcDbEntity
  8
CONTINUOUS1
 48
3.0
100
AcDbLine
 10
1854.644116516375
 20
730.1218895199903
 30
0.0
 11
1840.644116516375
 21
730.1218895199903
 31
0.0
  0
ARC
  5
3307C
330
1F
100
AcDbEntity
  8
CONTINUOUS1
 48
3.0
100
AcDbCircle
 10
945.4487645394051
 20
2419.8974984176
 30
0.0
 40
5.0
100
AcDbArc
 50
0.0
 51
90.0
  0
ARC
  5
3307D
330
1F
100
AcDbEntity
  8
CONTINUOUS1
 48
3.0
100
AcDbCircle
 10
1138.538764539395
 20
2419.8974984176
 30
0.0
 40
5.0
100
AcDbArc
 50
90.00000000000103
 51
180.0
  0
LINE
  5
3309C
330
1F
100
AcDbEntity
  8
CONTINUOUS1
 48
3.0
100
AcDbLine
 10
1311.644116516375
 20
1510.912180354911
 30
0.0
 11
1891.644116516375
 21
1510.91218035491
 31
0.0
  0
LINE
  5
3309D
330
1F
100
AcDbEntity
  8
CONTINUOUS1
 48
3.0
100
AcDbLine
 10
1306.644116516375
 20
1470.91218035491
 30
0.0
 11
1896.644116516375
 21
1470.912180354911
 31
0.0
  0
LINE
  5
3309E
330
1F
100
AcDbEntity
  8
CONTINUOUS1
 48
3.0
100
AcDbLine
 10
1301.644116516375
 20
1500.912180354911
 30
0.0
 11
1301.644116516375
 21
1475.91218035491
 31
0.0
  0
LINE
  5
3309F
330
1F
100
AcDbEntity
  8
CONTINUOUS1
 48
3.0
100
AcDbLine
 10
1901.644116516375
 20
1500.912180354911
 30
0.0
 11
1901.644116516375
 21
1475.912180354911
 31
0.0
  0
ARC
  5
330A0
330
1F
100
AcDbEntity
  8
CONTINUOUS1
 48
3.0
100
AcDbCircle
 10
1306.644116516375
 20
1475.91218035491
 30
0.0
 40
5.0
100
AcDbArc
 50
180.0
 51
270.0
  0
ARC
  5
330A1
330
1F
100
AcDbEntity
  8
CONTINUOUS1
 48
3.0
100
AcDbCircle
 10
1896.644116516375
 20
1475.912180354911
 30
0.0
 40
5.0
100
AcDbArc
 50
270.0000000000001
 51
0.0
  0
ARC
  5
330A2
330
1F
100
AcDbEntity
  8
CONTINUOUS1
 48
3.0
100
AcDbCircle
 10
1891.644116516375
 20
1500.912180354911
 30
0.0
 40
10.0
100
AcDbArc
 50
0.0
 51
90.0
  0
ARC
  5
330A3
330
1F
100
AcDbEntity
  8
CONTINUOUS1
 48
3.0
100
AcDbCircle
 10
1311.644116516375
 20
1500.912180354911
 30
0.0
 40
10.0
100
AcDbArc
 50
90.0
 51
180.0
  0
LINE
  5
330A5
330
1F
100
AcDbEntity
  8
CONTINUOUS1
 48
3.0
100
AcDbLine
 10
1301.644116516376
 20
1441.842180354917
 30
0.0
 11
1301.644116516371
 21
813.6531803549109
 31
0.0
  0
LINE
  5
330A6
330
1F
100
AcDbEntity
  8
CONTINUOUS1
 48
3.0
100
AcDbLine
 10
1901.644116516375
 20
1441.842180354917
 30
0.0
 11
1901.644116516375
 21
813.6531803549106
 31
0.0
  0
LINE
  5
330A9
330
1F
100
AcDbEntity
  8
CONTINUOUS1
 48
3.0
100
AcDbLine
 10
1311.644116516376
 20
1451.842180354917
 30
0.0
 11
1891.644116516375
 21
1451.842180354917
 31
0.0
  0
ARC
  5
330AA
330
1F
100
AcDbEntity
  8
CONTINUOUS1
 48
3.0
100
AcDbCircle
 10
1311.644116516376
 20
1441.842180354917
 30
0.0
 40
10.0
100
AcDbArc
 50
90.0
 51
179.9999999999994
  0
ARC
  5
330AB
330
1F
100
AcDbEntity
  8
CONTINUOUS1
 48
3.0
100
AcDbCircle
 10
1891.644116516375
 20
1441.842180354917
 30
0.0
 40
10.0
100
AcDbArc
 50
0.0
 51
90.0
  0
LINE
  5
330B3
330
1F
100
AcDbEntity
  8
CONTINUOUS1
 48
3.0
100
AcDbLine
 10
1341.644116516371
 20
773.6531803549105
 30
0.0
 11
1861.644116516375
 21
773.6531803549106
 31
0.0
  0
ARC
  5
330B4
330
1F
100
AcDbEntity
  8
CONTINUOUS1
 48
3.0
100
AcDbCircle
 10
1341.644116516371
 20
813.6531803549106
 30
0.0
 40
40.0
100
AcDbArc
 50
179.9999999999994
 51
270.0
  0
ARC
  5
330B5
330
1F
100
AcDbEntity
  8
CONTINUOUS1
 48
3.0
100
AcDbCircle
 10
1861.644116516375
 20
813.6531803549106
 30
0.0
 40
40.0
100
AcDbArc
 50
270.0
 51
0.0
  0
LINE
  5
330C3
330
1F
100
AcDbEntity
  8
CENTER
 48
3.0
100
AcDbLine
 10
1601.644116516375
 20
1560.912180354911
 30
0.0
 11
1601.644116516374
 21
340.6218895199904
 31
0.0
  0
LINE
  5
330C7
330
1F
100
AcDbEntity
  8
CONTINUOUS1
 48
3.0
100
AcDbLine
 10
1346.644116516375
 20
762.7421803549148
 30
0.0
 11
1856.644116516375
 21
762.7421803549147
 31
0.0
  0
ARC
  5
330C8
330
1F
100
AcDbEntity
  8
CONTINUOUS1
 48
3.0
100
AcDbCircle
 10
1346.644116516375
 20
792.7421803549147
 30
0.0
 40
30.0
100
AcDbArc
 50
204.0667593335718
 51
270.0
  0
ARC
  5
330CE
330
1F
100
AcDbEntity
  8
CONTINUOUS1
 48
3.0
100
AcDbCircle
 10
1856.644116516375
 20
792.7421803549147
 30
0.0
 40
30.0
100
AcDbArc
 50
270.0
 51
335.9332406664281
  0
LINE
  5
330D2
330
1F
100
AcDbEntity
  8
CONTINUOUS1
 48
3.0
100
AcDbLine
 10
187.9978281448448
 20
726.74218035491
 30
0.0
 11
665.9978281448448
 21
726.74218035491
 31
0.0
  0
LINE
  5
330D6
330
1F
100
AcDbEntity
  8
CONTINUOUS1
 48
3.0
100
AcDbLine
 10
609.9978281448447
 20
726.74218035491
 30
0.0
 11
243.9978281448448
 21
726.74218035491
 31
0.0
  0
LINE
  5
330D7
330
1F
100
AcDbEntity
  8
CONTINUOUS1
 48
3.0
100
AcDbLine
 10
681.297828144844
 20
493.24218035491
 30
0.0
 11
426.9978281448447
 21
493.24218035491
 31
0.0
  0
ARC
  5
330DD
330
1F
100
AcDbEntity
  8
CONTINUOUS1
 48
3.0
100
AcDbCircle
 10
180.9978281448447
 20
720.49218035491
 30
0.0
 40
13.25000000000414
100
AcDbArc
 50
62.08989999999655
 51
117.9099999999597
  0
LINE
  5
330DF
330
1F
100
AcDbEntity
  8
CONTINUOUS1
 48
3.0
100
AcDbLine
 10
173.9978281448447
 20
726.74218035491
 30
0.0
 11
187.9978281448448
 21
726.74218035491
 31
0.0
  0
LINE
  5
330E0
330
1F
100
AcDbEntity
  8
CONTINUOUS1
 48
3.0
100
AcDbLine
 10
172.9978281448447
 20
424.24218035491
 30
0.0
 11
188.9978281448447
 21
424.24218035491
 31
0.0
  0
LINE
  5
330E1
330
1F
100
AcDbEntity
  8
CONTINUOUS1
 48
3.0
100
AcDbLine
 10
188.9978281448447
 20
456.24218035491
 30
0.0
 11
172.9978281448447
 21
456.24218035491
 31
0.0
  0
LINE
  5
330E2
330
1F
100
AcDbEntity
  8
CONTINUOUS1
 48
3.0
100
AcDbLine
 10
173.9978281448447
 20
729.74218035491
 30
0.0
 11
187.9978281448448
 21
729.74218035491
 31
0.0
  0
LINE
  5
330E3
330
1F
100
AcDbEntity
  8
CONTINUOUS1
 48
3.0
100
AcDbLine
 10
172.6978281448436
 20
493.24218035491
 30
0.0
 11
426.9978281448447
 21
493.24218035491
 31
0.0
  0
LINE
  5
330E4
330
1F
100
AcDbEntity
  8
CONTINUOUS1
 48
3.0
100
AcDbLine
 10
187.9978281448448
 20
729.74218035491
 30
0.0
 11
173.9978281448447
 21
729.74218035491
 31
0.0
  0
LINE
  5
330E5
330
1F
100
AcDbEntity
  8
CONTINUOUS1
 48
3.0
100
AcDbLine
 10
172.6978281448436
 20
726.74218035491
 30
0.0
 11
172.6978281448436
 21
493.24218035491
 31
0.0
  0
LINE
  5
330E6
330
1F
100
AcDbEntity
  8
CONTINUOUS1
 48
3.0
100
AcDbLine
 10
109.5978281448542
 20
431.24218035491
 30
0.0
 11
119.5978281448542
 21
431.24218035491
 31
0.0
  0
LINE
  5
330E7
330
1F
100
AcDbEntity
  8
CONTINUOUS1
 48
3.0
100
AcDbLine
 10
109.5978281448542
 20
449.24218035491
 30
0.0
 11
119.5978281448542
 21
449.24218035491
 31
0.0
  0
LINE
  5
330E8
330
1F
100
AcDbEntity
  8
CONTINUOUS1
 48
3.0
100
AcDbLine
 10
109.5978281448542
 20
432.24218035491
 30
0.0
 11
119.5978281448542
 21
432.24218035491
 31
0.0
  0
LINE
  5
330E9
330
1F
100
AcDbEntity
  8
CONTINUOUS1
 48
3.0
100
AcDbLine
 10
109.5978281448542
 20
448.24218035491
 30
0.0
 11
119.5978281448542
 21
448.24218035491
 31
0.0
  0
LINE
  5
330EA
330
1F
100
AcDbEntity
  8
CONTINUOUS1
 48
3.0
100
AcDbLine
 10
109.5978281448542
 20
434.24218035491
 30
0.0
 11
119.5978281448542
 21
434.24218035491
 31
0.0
  0
LINE
  5
330EB
330
1F
100
AcDbEntity
  8
CONTINUOUS1
 48
3.0
100
AcDbLine
 10
109.5978281448542
 20
446.24218035491
 30
0.0
 11
119.5978281448542
 21
446.24218035491
 31
0.0
  0
LINE
  5
330EC
330
1F
100
AcDbEntity
  8
CONTINUOUS1
 48
3.0
100
AcDbLine
 10
109.5978281448542
 20
436.24218035491
 30
0.0
 11
119.5978281448542
 21
436.24218035491
 31
0.0
  0
LINE
  5
330ED
330
1F
100
AcDbEntity
  8
CONTINUOUS1
 48
3.0
100
AcDbLine
 10
109.5978281448542
 20
444.24218035491
 30
0.0
 11
119.5978281448542
 21
444.24218035491
 31
0.0
  0
LINE
  5
330EE
330
1F
100
AcDbEntity
  8
CONTINUOUS1
 48
3.0
100
AcDbLine
 10
109.5978281448542
 20
449.24218035491
 30
0.0
 11
119.5978281448542
 21
449.24218035491
 31
0.0
  0
LINE
  5
330EF
330
1F
100
AcDbEntity
  8
CONTINUOUS1
 48
3.0
100
AcDbLine
 10
109.5978281448542
 20
442.24218035491
 30
0.0
 11
119.5978281448542
 21
442.24218035491
 31
0.0
  0
LINE
  5
330F0
330
1F
100
AcDbEntity
  8
CONTINUOUS1
 48
3.0
100
AcDbLine
 10
109.5978281448542
 20
438.24218035491
 30
0.0
 11
119.5978281448542
 21
438.24218035491
 31
0.0
  0
LINE
  5
330F1
330
1F
100
AcDbEntity
  8
CONTINUOUS1
 48
3.0
100
AcDbLine
 10
109.5978281448542
 20
431.24218035491
 30
0.0
 11
119.5978281448542
 21
431.24218035491
 31
0.0
  0
LINE
  5
330F2
330
1F
100
AcDbEntity
  8
CONTINUOUS1
 48
3.0
100
AcDbLine
 10
109.5978281448542
 20
440.24218035491
 30
0.0
 11
119.5978281448542
 21
440.24218035491
 31
0.0
  0
ARC
  5
330F3
330
1F
100
AcDbEntity
  8
CONTINUOUS1
 48
3.0
100
AcDbCircle
 10
109.5978281448542
 20
448.24218035491
 30
0.0
 40
1.0
100
AcDbArc
 50
90.0
 51
180.0
  0
ARC
  5
330F4
330
1F
100
AcDbEntity
  8
CONTINUOUS1
 48
3.0
100
AcDbCircle
 10
109.5978281448542
 20
432.24218035491
 30
0.0
 40
1.0
100
AcDbArc
 50
180.0
 51
270.0
  0
LINE
  5
330F5
330
1F
100
AcDbEntity
  8
CONTINUOUS1
 48
3.0
100
AcDbLine
 10
108.5978281448542
 20
448.24218035491
 30
0.0
 11
108.5978281448542
 21
432.24218035491
 31
0.0
  0
LINE
  5
330F6
330
1F
100
AcDbEntity
  8
CONTINUOUS1
 48
3.0
100
AcDbLine
 10
162.9978281448448
 20
449.24218035491
 30
0.0
 11
164.1378281448442
 21
451.2111803549118
 31
0.0
  0
LINE
  5
330F7
330
1F
100
AcDbEntity
  8
CONTINUOUS1
 48
3.0
100
AcDbLine
 10
172.9978281448447
 20
456.24218035491
 30
0.0
 11
172.9978281448447
 21
424.24218035491
 31
0.0
  0
LINE
  5
330F8
330
1F
100
AcDbEntity
  8
CONTINUOUS1
 48
3.0
100
AcDbLine
 10
157.797828144844
 20
397.7921803549111
 30
0.0
 11
157.797828144844
 21
482.6921803549107
 31
0.0
  0
LINE
  5
330F9
330
1F
100
AcDbEntity
  8
CONTINUOUS1
 48
3.0
100
AcDbLine
 10
158.6978281448437
 20
456.3421803549103
 30
0.0
 11
158.6978281448437
 21
448.8421803549104
 31
0.0
  0
LINE
  5
330FA
330
1F
100
AcDbEntity
  8
CONTINUOUS1
 48
3.0
100
AcDbLine
 10
124.8978281448444
 20
456.3421803549103
 30
0.0
 11
124.8978281448444
 21
448.8421803549104
 31
0.0
  0
LINE
  5
330FB
330
1F
100
AcDbEntity
  8
CONTINUOUS1
 48
3.0
100
AcDbLine
 10
125.797828144844
 20
397.7921803549111
 30
0.0
 11
125.797828144844
 21
482.6921803549107
 31
0.0
  0
LINE
  5
330FC
330
1F
100
AcDbEntity
  8
CONTINUOUS1
 48
3.0
100
AcDbLine
 10
162.9978281448448
 20
452.24218035491
 30
0.0
 11
162.9978281448448
 21
428.24218035491
 31
0.0
  0
LINE
  5
330FD
330
1F
100
AcDbEntity
  8
CONTINUOUS1
 48
3.0
100
AcDbLine
 10
160.6978281448436
 20
452.24218035491
 30
0.0
 11
160.6978281448436
 21
428.24218035491
 31
0.0
  0
LINE
  5
330FE
330
1F
100
AcDbEntity
  8
CONTINUOUS1
 48
3.0
100
AcDbLine
 10
122.8978281448444
 20
452.24218035491
 30
0.0
 11
122.8978281448444
 21
428.24218035491
 31
0.0
  0
LINE
  5
330FF
330
1F
100
AcDbEntity
  8
CONTINUOUS1
 48
3.0
100
AcDbLine
 10
120.5978281448542
 20
452.24218035491
 30
0.0
 11
120.5978281448542
 21
428.24218035491
 31
0.0
  0
ARC
  5
33100
330
1F
100
AcDbEntity
  8
CONTINUOUS1
 48
3.0
100
AcDbCircle
 10
141.797828144844
 20
420.24218035491
 30
0.0
 40
30.0
100
AcDbArc
 50
270.0
 51
296.1039999999558
  0
ARC
  5
33101
330
1F
100
AcDbEntity
  8
CONTINUOUS1
 48
3.0
100
AcDbCircle
 10
119.5978281448542
 20
432.24218035491
 30
0.0
 40
1.0
100
AcDbArc
 50
270.0
 51
0.0
  0
ARC
  5
33102
330
1F
100
AcDbEntity
  8
CONTINUOUS1
 48
3.0
100
AcDbCircle
 10
119.5978281448542
 20
448.24218035491
 30
0.0
 40
1.0
100
AcDbArc
 50
0.0
 51
90.0
  0
ARC
  5
33103
330
1F
100
AcDbEntity
  8
CONTINUOUS1
 48
3.0
100
AcDbCircle
 10
130.797828144844
 20
397.7921803549111
 30
0.0
 40
5.0
100
AcDbArc
 50
180.0
 51
243.8960000000645
  0
ARC
  5
33104
330
1F
100
AcDbEntity
  8
CONTINUOUS1
 48
3.0
100
AcDbCircle
 10
141.797828144844
 20
420.24218035491
 30
0.0
 40
30.00000000000077
100
AcDbArc
 50
243.8960000000441
 51
270.0
  0
LINE
  5
33105
330
1F
100
AcDbEntity
  8
CONTINUOUS1
 48
3.0
100
AcDbLine
 10
120.5978281448542
 20
448.24218035491
 30
0.0
 11
120.5978281448542
 21
432.24218035491
 31
0.0
  0
LINE
  5
33106
330
1F
100
AcDbEntity
  8
CONTINUOUS1
 48
3.0
100
AcDbLine
 10
124.8978281448444
 20
424.1421803549106
 30
0.0
 11
124.8978281448444
 21
431.6421803549105
 31
0.0
  0
LINE
  5
33107
330
1F
100
AcDbEntity
  8
CONTINUOUS1
 48
3.0
100
AcDbLine
 10
122.8978281448444
 20
448.8421803549104
 30
0.0
 11
122.8978281448444
 21
440.24218035491
 31
0.0
  0
LINE
  5
33108
330
1F
100
AcDbEntity
  8
CONTINUOUS1
 48
3.0
100
AcDbLine
 10
122.8978281448444
 20
431.6421803549105
 30
0.0
 11
122.8978281448444
 21
440.24218035491
 31
0.0
  0
LINE
  5
33109
330
1F
100
AcDbEntity
  8
CONTINUOUS1
 48
3.0
100
AcDbLine
 10
124.8978281448444
 20
448.8421803549104
 30
0.0
 11
122.8978281448444
 21
448.8421803549104
 31
0.0
  0
LINE
  5
3310A
330
1F
100
AcDbEntity
  8
CONTINUOUS1
 48
3.0
100
AcDbLine
 10
125.797828144844
 20
424.1421803549106
 30
0.0
 11
124.8978281448444
 21
424.1421803549106
 31
0.0
  0
LINE
  5
3310B
330
1F
100
AcDbEntity
  8
CONTINUOUS1
 48
3.0
100
AcDbLine
 10
124.8978281448444
 20
431.6421803549105
 30
0.0
 11
122.8978281448444
 21
431.6421803549105
 31
0.0
  0
LINE
  5
3310C
330
1F
100
AcDbEntity
  8
CONTINUOUS1
 48
3.0
100
AcDbLine
 10
120.5978281448542
 20
428.24218035491
 30
0.0
 11
122.8978281448444
 21
428.24218035491
 31
0.0
  0
ARC
  5
3310D
330
1F
100
AcDbEntity
  8
CONTINUOUS1
 48
3.0
100
AcDbCircle
 10
180.9978281448447
 20
440.24218035491
 30
0.0
 40
18.0000000000016
100
AcDbArc
 50
162.2590000000114
 51
197.7409999999886
  0
ARC
  5
3310E
330
1F
100
AcDbEntity
  8
CONTINUOUS1
 48
3.0
100
AcDbCircle
 10
152.797828144844
 20
397.7921803549111
 30
0.0
 40
5.00000000000134
100
AcDbArc
 50
296.1040000000519
 51
0.0
  0
LINE
  5
3310F
330
1F
100
AcDbEntity
  8
CONTINUOUS1
 48
3.0
100
AcDbLine
 10
163.8578281448435
 20
445.7271803549105
 30
0.0
 11
172.9978281448447
 21
445.7271803549105
 31
0.0
  0
LINE
  5
33110
330
1F
100
AcDbEntity
  8
CONTINUOUS1
 48
3.0
100
AcDbLine
 10
162.9978281448448
 20
449.24218035491
 30
0.0
 11
163.8578281448435
 21
445.7271803549105
 31
0.0
  0
LINE
  5
33111
330
1F
100
AcDbEntity
  8
CONTINUOUS1
 48
3.0
100
AcDbLine
 10
163.8578281448435
 20
434.7571803549103
 30
0.0
 11
172.9978281448447
 21
434.7571803549103
 31
0.0
  0
LINE
  5
33112
330
1F
100
AcDbEntity
  8
CONTINUOUS1
 48
3.0
100
AcDbLine
 10
162.9978281448448
 20
449.24218035491
 30
0.0
 11
162.9978281448448
 21
431.24218035491
 31
0.0
  0
LINE
  5
33113
330
1F
100
AcDbEntity
  8
CONTINUOUS1
 48
3.0
100
AcDbLine
 10
162.9978281448448
 20
431.24218035491
 30
0.0
 11
164.1378281448442
 21
429.2721803549106
 31
0.0
  0
LINE
  5
33114
330
1F
100
AcDbEntity
  8
CONTINUOUS1
 48
3.0
100
AcDbLine
 10
164.1378281448442
 20
429.2721803549106
 30
0.0
 11
172.9978281448447
 21
429.2721803549106
 31
0.0
  0
LINE
  5
33115
330
1F
100
AcDbEntity
  8
CONTINUOUS1
 48
3.0
100
AcDbLine
 10
163.8578281448435
 20
434.7571803549103
 30
0.0
 11
162.9978281448448
 21
431.24218035491
 31
0.0
  0
LINE
  5
33116
330
1F
100
AcDbEntity
  8
CONTINUOUS1
 48
3.0
100
AcDbLine
 10
157.797828144844
 20
424.1421803549106
 30
0.0
 11
158.6978281448437
 21
424.1421803549106
 31
0.0
  0
LINE
  5
33117
330
1F
100
AcDbEntity
  8
CONTINUOUS1
 48
3.0
100
AcDbLine
 10
158.6978281448437
 20
448.8421803549104
 30
0.0
 11
160.6978281448436
 21
448.8421803549104
 31
0.0
  0
LINE
  5
33118
330
1F
100
AcDbEntity
  8
CONTINUOUS1
 48
3.0
100
AcDbLine
 10
160.6978281448436
 20
431.6421803549105
 30
0.0
 11
160.6978281448436
 21
440.24218035491
 31
0.0
  0
LINE
  5
33119
330
1F
100
AcDbEntity
  8
CONTINUOUS1
 48
3.0
100
AcDbLine
 10
160.6978281448436
 20
448.8421803549104
 30
0.0
 11
160.6978281448436
 21
440.24218035491
 31
0.0
  0
LINE
  5
3311A
330
1F
100
AcDbEntity
  8
CONTINUOUS1
 48
3.0
100
AcDbLine
 10
158.6978281448437
 20
424.1421803549106
 30
0.0
 11
158.6978281448437
 21
431.6421803549105
 31
0.0
  0
LINE
  5
3311B
330
1F
100
AcDbEntity
  8
CONTINUOUS1
 48
3.0
100
AcDbLine
 10
158.6978281448437
 20
431.6421803549105
 30
0.0
 11
160.6978281448436
 21
431.6421803549105
 31
0.0
  0
LINE
  5
3311C
330
1F
100
AcDbEntity
  8
CONTINUOUS1
 48
3.0
100
AcDbLine
 10
160.6978281448436
 20
428.24218035491
 30
0.0
 11
162.9978281448448
 21
428.24218035491
 31
0.0
  0
ARC
  5
3311D
330
1F
100
AcDbEntity
  8
CONTINUOUS1
 48
3.0
100
AcDbCircle
 10
141.797828144844
 20
460.24218035491
 30
0.0
 40
30.00000000000413
100
AcDbArc
 50
63.89609999996152
 51
90.0
  0
ARC
  5
3311E
330
1F
100
AcDbEntity
  8
CONTINUOUS1
 48
3.0
100
AcDbCircle
 10
130.797828144844
 20
482.6921803549107
 30
0.0
 40
4.999999999996521
100
AcDbArc
 50
116.1039999999558
 51
180.0
  0
ARC
  5
3311F
330
1F
100
AcDbEntity
  8
CONTINUOUS1
 48
3.0
100
AcDbCircle
 10
141.797828144844
 20
460.24218035491
 30
0.0
 40
30.0
100
AcDbArc
 50
90.0
 51
116.1039999999558
  0
LINE
  5
33120
330
1F
100
AcDbEntity
  8
CONTINUOUS1
 48
3.0
100
AcDbLine
 10
125.797828144844
 20
456.3421803549103
 30
0.0
 11
124.8978281448444
 21
456.3421803549103
 31
0.0
  0
LINE
  5
33121
330
1F
100
AcDbEntity
  8
CONTINUOUS1
 48
3.0
100
AcDbLine
 10
120.5978281448542
 20
452.24218035491
 30
0.0
 11
122.8978281448444
 21
452.24218035491
 31
0.0
  0
ARC
  5
33122
330
1F
100
AcDbEntity
  8
CONTINUOUS1
 48
3.0
100
AcDbCircle
 10
152.797828144844
 20
482.6921803549107
 30
0.0
 40
5.0
100
AcDbArc
 50
0.0
 51
63.89609999996152
  0
LINE
  5
33123
330
1F
100
AcDbEntity
  8
CONTINUOUS1
 48
3.0
100
AcDbLine
 10
173.9978281448447
 20
493.24218035491
 30
0.0
 11
173.9978281448447
 21
456.24218035491
 31
0.0
  0
LINE
  5
33124
330
1F
100
AcDbEntity
  8
CONTINUOUS1
 48
3.0
100
AcDbLine
 10
164.1378281448442
 20
451.2111803549118
 30
0.0
 11
172.9978281448447
 21
451.2111803549118
 31
0.0
  0
LINE
  5
33125
330
1F
100
AcDbEntity
  8
CONTINUOUS1
 48
3.0
100
AcDbLine
 10
157.797828144844
 20
456.3421803549103
 30
0.0
 11
158.6978281448437
 21
456.3421803549103
 31
0.0
  0
LINE
  5
33126
330
1F
100
AcDbEntity
  8
CONTINUOUS1
 48
3.0
100
AcDbLine
 10
160.6978281448436
 20
452.24218035491
 30
0.0
 11
162.9978281448448
 21
452.24218035491
 31
0.0
  0
ARC
  5
33127
330
1F
100
AcDbEntity
  8
CONTINUOUS1
 48
3.0
100
AcDbCircle
 10
175.4978281448448
 20
730.8751803549098
 30
0.0
 40
1.500000000001047
100
AcDbArc
 50
117.9099999999845
 51
180.0
  0
LINE
  5
33128
330
1F
100
AcDbEntity
  8
CONTINUOUS1
 48
3.0
100
AcDbLine
 10
172.6978281448436
 20
726.74218035491
 30
0.0
 11
173.9978281448447
 21
726.74218035491
 31
0.0
  0
LINE
  5
33129
330
1F
100
AcDbEntity
  8
CONTINUOUS1
 48
3.0
100
AcDbLine
 10
173.9978281448447
 20
729.74218035491
 30
0.0
 11
173.9978281448447
 21
726.74218035491
 31
0.0
  0
LINE
  5
3312A
330
1F
100
AcDbEntity
  8
CONTINUOUS1
 48
3.0
100
AcDbLine
 10
173.9978281448447
 20
730.24218035491
 30
0.0
 11
173.9978281448447
 21
729.74218035491
 31
0.0
  0
LINE
  5
3312B
330
1F
100
AcDbEntity
  8
CONTINUOUS1
 48
3.0
100
AcDbLine
 10
173.9978281448447
 20
730.8751803549098
 30
0.0
 11
173.9978281448447
 21
729.74218035491
 31
0.0
  0
LINE
  5
33134
330
1F
100
AcDbEntity
  8
CONTINUOUS1
 48
3.0
100
AcDbLine
 10
188.9978281448447
 20
456.24218035491
 30
0.0
 11
188.9978281448447
 21
424.24218035491
 31
0.0
  0
LINE
  5
33135
330
1F
100
AcDbEntity
  8
CONTINUOUS1
 48
3.0
100
AcDbLine
 10
202.0978281448542
 20
449.0781803549102
 30
0.0
 11
200.8578281448435
 21
451.2111803549118
 31
0.0
  0
LINE
  5
33136
330
1F
100
AcDbEntity
  8
CONTINUOUS1
 48
3.0
100
AcDbLine
 10
191.9978281448447
 20
429.2721803549106
 30
0.0
 11
191.9978281448447
 21
451.2111803549118
 31
0.0
  0
ARC
  5
33137
330
1F
100
AcDbEntity
  8
CONTINUOUS1
 48
3.0
100
AcDbCircle
 10
183.9978281448447
 20
440.2421803549118
 30
0.0
 40
18.00000000000132
100
AcDbArc
 50
342.2590000000114
 51
17.74090000001634
  0
ARC
  5
33138
330
1F
100
AcDbEntity
  8
CONTINUOUS1
 48
3.0
100
AcDbCircle
 10
205.1578281448446
 20
440.24218035491
 30
0.0
 40
8.835939999999027
100
AcDbArc
 50
270.0
 51
90.0
  0
LINE
  5
33139
330
1F
100
AcDbEntity
  8
CONTINUOUS1
 48
3.0
100
AcDbLine
 10
201.9978281448447
 20
431.24218035491
 30
0.0
 11
201.1378281448441
 21
434.7571803549103
 31
0.0
  0
LINE
  5
3313A
330
1F
100
AcDbEntity
  8
CONTINUOUS1
 48
3.0
100
AcDbLine
 10
201.9978281448447
 20
431.24218035491
 30
0.0
 11
200.8578281448435
 21
429.2721803549106
 31
0.0
  0
LINE
  5
3313B
330
1F
100
AcDbEntity
  8
CONTINUOUS1
 48
3.0
100
AcDbLine
 10
201.1378281448441
 20
445.7271803549105
 30
0.0
 11
191.9978281448447
 21
445.7271803549105
 31
0.0
  0
LINE
  5
3313C
330
1F
100
AcDbEntity
  8
CONTINUOUS1
 48
3.0
100
AcDbLine
 10
201.1378281448441
 20
434.7571803549103
 30
0.0
 11
191.9978281448447
 21
434.7571803549103
 31
0.0
  0
LINE
  5
3313D
330
1F
100
AcDbEntity
  8
CONTINUOUS1
 48
3.0
100
AcDbLine
 10
201.9978281448447
 20
431.24218035491
 30
0.0
 11
201.9978281448447
 21
449.24218035491
 31
0.0
  0
LINE
  5
3313E
330
1F
100
AcDbEntity
  8
CONTINUOUS1
 48
3.0
100
AcDbLine
 10
200.8578281448435
 20
429.2721803549106
 30
0.0
 11
188.9978281448447
 21
429.2721803549106
 31
0.0
  0
LINE
  5
3313F
330
1F
100
AcDbEntity
  8
CONTINUOUS1
 48
3.0
100
AcDbLine
 10
201.1378281448441
 20
445.7271803549105
 30
0.0
 11
201.9978281448447
 21
449.24218035491
 31
0.0
  0
LINE
  5
33140
330
1F
100
AcDbEntity
  8
CONTINUOUS1
 48
3.0
100
AcDbLine
 10
205.1578281448446
 20
431.4061803549106
 30
0.0
 11
202.0978281448542
 21
431.4061803549106
 31
0.0
  0
LINE
  5
33141
330
1F
100
AcDbEntity
  8
CONTINUOUS1
 48
3.0
100
AcDbLine
 10
205.1578281448446
 20
449.0781803549102
 30
0.0
 11
202.0978281448542
 21
449.0781803549102
 31
0.0
  0
LINE
  5
33146
330
1F
100
AcDbEntity
  8
CONTINUOUS1
 48
3.0
100
AcDbLine
 10
187.9978281448448
 20
493.24218035491
 30
0.0
 11
187.9978281448448
 21
456.24218035491
 31
0.0
  0
LINE
  5
33147
330
1F
100
AcDbEntity
  8
CONTINUOUS1
 48
3.0
100
AcDbLine
 10
200.8578281448435
 20
451.2111803549118
 30
0.0
 11
188.9978281448447
 21
451.2111803549118
 31
0.0
  0
LINE
  5
3315F
330
1F
100
AcDbEntity
  8
CONTINUOUS1
 48
3.0
100
AcDbLine
 10
239.9978281448447
 20
762.7421803549148
 30
0.0
 11
239.9978281448448
 21
700.8011803549111
 31
0.0
  0
LINE
  5
33160
330
1F
100
AcDbEntity
  8
CONTINUOUS1
 48
3.0
100
AcDbLine
 10
243.9978281448448
 20
762.7421803549148
 30
0.0
 11
243.9978281448448
 21
700.8011803549111
 31
0.0
  0
LINE
  5
33161
330
1F
100
AcDbEntity
  8
CONTINUOUS1
 48
3.0
100
AcDbLine
 10
243.9978281448448
 20
700.8011803549111
 30
0.0
 11
239.9978281448448
 21
700.8011803549111
 31
0.0
  0
LINE
  5
33167
330
1F
100
AcDbEntity
  8
CONTINUOUS1
 48
3.0
100
AcDbLine
 10
239.9978281448448
 20
726.74218035491
 30
0.0
 11
187.9978281448448
 21
726.74218035491
 31
0.0
  0
ARC
  5
33169
330
1F
100
AcDbEntity
  8
CONTINUOUS1
 48
3.0
100
AcDbCircle
 10
186.4978281448447
 20
730.8751803549098
 30
0.0
 40
1.5
100
AcDbArc
 50
0.0
 51
62.08989999999655
  0
LINE
  5
3316B
330
1F
100
AcDbEntity
  8
CONTINUOUS1
 48
3.0
100
AcDbLine
 10
187.9978281448448
 20
729.74218035491
 30
0.0
 11
187.9978281448448
 21
726.74218035491
 31
0.0
  0
LINE
  5
3316C
330
1F
100
AcDbEntity
  8
CONTINUOUS1
 48
3.0
100
AcDbLine
 10
187.9978281448448
 20
730.24218035491
 30
0.0
 11
187.9978281448448
 21
729.74218035491
 31
0.0
  0
LINE
  5
3316D
330
1F
100
AcDbEntity
  8
CONTINUOUS1
 48
3.0
100
AcDbLine
 10
187.9978281448448
 20
730.8751803549098
 30
0.0
 11
187.9978281448448
 21
729.74218035491
 31
0.0
  0
LINE
  5
33170
330
1F
100
AcDbEntity
  8
CONTINUOUS1
 48
3.0
100
AcDbLine
 10
245.4978281448447
 20
726.74218035491
 30
0.0
 11
243.9978281448448
 21
726.74218035491
 31
0.0
  0
LINE
  5
3319E
330
1F
100
AcDbEntity
  8
CONTINUOUS1
 48
3.0
100
AcDbLine
 10
463.9978281448448
 20
762.7421803549148
 30
0.0
 11
463.9978281448447
 21
726.74218035491
 31
0.0
  0
LINE
  5
331AB
330
1F
100
AcDbEntity
  8
CONTINUOUS1
 48
3.0
100
AcDbLine
 10
681.297828144844
 20
726.74218035491
 30
0.0
 11
681.297828144844
 21
493.24218035491
 31
0.0
  0
LINE
  5
331AC
330
1F
100
AcDbEntity
  8
CONTINUOUS1
 48
3.0
100
AcDbLine
 10
681.297828144844
 20
669.74218035491
 30
0.0
 11
681.297828144844
 21
493.24218035491
 31
0.0
  0
LINE
  5
331AD
330
1F
100
AcDbEntity
  8
CONTINUOUS1
 48
3.0
100
AcDbLine
 10
681.297828144844
 20
669.74218035491
 30
0.0
 11
681.297828144844
 21
493.24218035491
 31
0.0
  0
ARC
  5
331CA
330
1F
100
AcDbEntity
  8
CONTINUOUS1
 48
3.0
100
AcDbCircle
 10
712.1978281448437
 20
460.24218035491
 30
0.0
 40
30.0
100
AcDbArc
 50
90.0
 51
116.1039999999558
  0
ARC
  5
331CB
330
1F
100
AcDbEntity
  8
CONTINUOUS1
 48
3.0
100
AcDbCircle
 10
712.1978281448437
 20
420.24218035491
 30
0.0
 40
29.99999999999596
100
AcDbArc
 50
243.8960000000441
 51
270.0
  0
LINE
  5
331CC
330
1F
100
AcDbEntity
  8
CONTINUOUS1
 48
3.0
100
AcDbLine
 10
690.9978281448448
 20
449.24218035491
 30
0.0
 11
689.8578281448435
 21
451.2111803549118
 31
0.0
  0
LINE
  5
331CD
330
1F
100
AcDbEntity
  8
CONTINUOUS1
 48
3.0
100
AcDbLine
 10
679.7978281448441
 20
455.0421803549111
 30
0.0
 11
679.7978281448441
 21
425.4421803549107
 31
0.0
  0
LINE
  5
331CE
330
1F
100
AcDbEntity
  8
CONTINUOUS1
 48
3.0
100
AcDbLine
 10
680.9978281448447
 20
456.24218035491
 30
0.0
 11
680.9978281448447
 21
424.24218035491
 31
0.0
  0
LINE
  5
331CF
330
1F
100
AcDbEntity
  8
CONTINUOUS1
 48
3.0
100
AcDbLine
 10
666.1978281448437
 20
455.0421803549111
 30
0.0
 11
666.1978281448437
 21
425.4421803549107
 31
0.0
  0
LINE
  5
331D0
330
1F
100
AcDbEntity
  8
CONTINUOUS1
 48
3.0
100
AcDbLine
 10
664.9978281448447
 20
456.24218035491
 30
0.0
 11
664.9978281448447
 21
424.24218035491
 31
0.0
  0
LINE
  5
331D1
330
1F
100
AcDbEntity
  8
CONTINUOUS1
 48
3.0
100
AcDbLine
 10
695.297828144844
 20
456.3421803549103
 30
0.0
 11
695.297828144844
 21
448.8421803549104
 31
0.0
  0
LINE
  5
331D2
330
1F
100
AcDbEntity
  8
CONTINUOUS1
 48
3.0
100
AcDbLine
 10
696.1978281448437
 20
397.7921803549111
 30
0.0
 11
696.1978281448437
 21
482.6921803549107
 31
0.0
  0
LINE
  5
331D3
330
1F
100
AcDbEntity
  8
CONTINUOUS1
 48
3.0
100
AcDbLine
 10
651.9978281448447
 20
449.24218035491
 30
0.0
 11
653.1378281448442
 21
451.2111803549118
 31
0.0
  0
LINE
  5
331D4
330
1F
100
AcDbEntity
  8
CONTINUOUS1
 48
3.0
100
AcDbLine
 10
661.9978281448448
 20
451.2111803549118
 30
0.0
 11
661.9978281448448
 21
429.2721803549106
 31
0.0
  0
LINE
  5
331D5
330
1F
100
AcDbEntity
  8
CONTINUOUS1
 48
3.0
100
AcDbLine
 10
693.297828144844
 20
452.24218035491
 30
0.0
 11
693.297828144844
 21
428.24218035491
 31
0.0
  0
LINE
  5
331D6
330
1F
100
AcDbEntity
  8
CONTINUOUS1
 48
3.0
100
AcDbLine
 10
690.9978281448448
 20
452.24218035491
 30
0.0
 11
690.9978281448448
 21
428.24218035491
 31
0.0
  0
LINE
  5
331D7
330
1F
100
AcDbEntity
  8
CONTINUOUS1
 48
3.0
100
AcDbLine
 10
664.9978281448447
 20
424.24218035491
 30
0.0
 11
680.9978281448447
 21
424.24218035491
 31
0.0
  0
LINE
  5
331D8
330
1F
100
AcDbEntity
  8
CONTINUOUS1
 48
3.0
100
AcDbLine
 10
666.1978281448437
 20
425.4421803549107
 30
0.0
 11
679.7978281448441
 21
425.4421803549107
 31
0.0
  0
ARC
  5
331D9
330
1F
100
AcDbEntity
  8
CONTINUOUS1
 48
3.0
100
AcDbCircle
 10
669.9978281448448
 20
440.24218035491
 30
0.0
 40
18.0000000000016
100
AcDbArc
 50
162.2590000000114
 51
197.7409999999886
  0
ARC
  5
331DA
330
1F
100
AcDbEntity
  8
CONTINUOUS1
 48
3.0
100
AcDbCircle
 10
648.8378281448449
 20
440.24218035491
 30
0.0
 40
8.835940000000846
100
AcDbArc
 50
90.0
 51
270.0
  0
LINE
  5
331DB
330
1F
100
AcDbEntity
  8
CONTINUOUS1
 48
3.0
100
AcDbLine
 10
651.9078281448446
 20
431.4061803549106
 30
0.0
 11
653.1378281448442
 21
429.2721803549106
 31
0.0
  0
LINE
  5
331DC
330
1F
100
AcDbEntity
  8
CONTINUOUS1
 48
3.0
100
AcDbLine
 10
651.9978281448447
 20
449.24218035491
 30
0.0
 11
652.8578281448435
 21
445.7271803549105
 31
0.0
  0
LINE
  5
331DD
330
1F
100
AcDbEntity
  8
CONTINUOUS1
 48
3.0
100
AcDbLine
 10
653.1378281448442
 20
429.2721803549106
 30
0.0
 11
664.9978281448447
 21
429.2721803549106
 31
0.0
  0
LINE
  5
331DE
330
1F
100
AcDbEntity
  8
CONTINUOUS1
 48
3.0
100
AcDbLine
 10
652.8578281448435
 20
434.7571803549103
 30
0.0
 11
661.9978281448448
 21
434.7571803549103
 31
0.0
  0
LINE
  5
331DF
330
1F
100
AcDbEntity
  8
CONTINUOUS1
 48
3.0
100
AcDbLine
 10
652.8578281448435
 20
445.7271803549105
 30
0.0
 11
661.9978281448448
 21
445.7271803549105
 31
0.0
  0
LINE
  5
331E0
330
1F
100
AcDbEntity
  8
CONTINUOUS1
 48
3.0
100
AcDbLine
 10
651.9978281448447
 20
449.24218035491
 30
0.0
 11
651.9978281448447
 21
431.24218035491
 31
0.0
  0
LINE
  5
331E1
330
1F
100
AcDbEntity
  8
CONTINUOUS1
 48
3.0
100
AcDbLine
 10
652.8578281448435
 20
434.7571803549103
 30
0.0
 11
651.9978281448447
 21
431.24218035491
 31
0.0
  0
LINE
  5
331E2
330
1F
100
AcDbEntity
  8
CONTINUOUS1
 48
3.0
100
AcDbLine
 10
648.8378281448449
 20
449.0781803549102
 30
0.0
 11
651.9078281448446
 21
449.0781803549102
 31
0.0
  0
LINE
  5
331E3
330
1F
100
AcDbEntity
  8
CONTINUOUS1
 48
3.0
100
AcDbLine
 10
648.8378281448449
 20
431.4061803549106
 30
0.0
 11
651.9078281448446
 21
431.4061803549106
 31
0.0
  0
ARC
  5
331E4
330
1F
100
AcDbEntity
  8
CONTINUOUS1
 48
3.0
100
AcDbCircle
 10
672.9978281448447
 20
440.2421803549118
 30
0.0
 40
18.00000000000132
100
AcDbArc
 50
342.2590000000114
 51
17.74090000001634
  0
ARC
  5
331E5
330
1F
100
AcDbEntity
  8
CONTINUOUS1
 48
3.0
100
AcDbCircle
 10
701.1978281448437
 20
397.7921803549111
 30
0.0
 40
5.0
100
AcDbArc
 50
180.0
 51
243.8960000000645
  0
LINE
  5
331E6
330
1F
100
AcDbEntity
  8
CONTINUOUS1
 48
3.0
100
AcDbLine
 10
690.9978281448448
 20
449.24218035491
 30
0.0
 11
690.1378281448442
 21
445.7271803549105
 31
0.0
  0
LINE
  5
331E7
330
1F
100
AcDbEntity
  8
CONTINUOUS1
 48
3.0
100
AcDbLine
 10
690.1378281448442
 20
434.7571803549103
 30
0.0
 11
690.9978281448448
 21
431.24218035491
 31
0.0
  0
LINE
  5
331E8
330
1F
100
AcDbEntity
  8
CONTINUOUS1
 48
3.0
100
AcDbLine
 10
690.9978281448448
 20
431.24218035491
 30
0.0
 11
689.8578281448435
 21
429.2721803549106
 31
0.0
  0
LINE
  5
331E9
330
1F
100
AcDbEntity
  8
CONTINUOUS1
 48
3.0
100
AcDbLine
 10
690.9978281448448
 20
449.24218035491
 30
0.0
 11
690.9978281448448
 21
431.24218035491
 31
0.0
  0
LINE
  5
331EA
330
1F
100
AcDbEntity
  8
CONTINUOUS1
 48
3.0
100
AcDbLine
 10
689.8578281448435
 20
429.2721803549106
 30
0.0
 11
680.9978281448447
 21
429.2721803549106
 31
0.0
  0
LINE
  5
331EB
330
1F
100
AcDbEntity
  8
CONTINUOUS1
 48
3.0
100
AcDbLine
 10
690.1378281448442
 20
434.7571803549103
 30
0.0
 11
680.9978281448447
 21
434.7571803549103
 31
0.0
  0
LINE
  5
331EC
330
1F
100
AcDbEntity
  8
CONTINUOUS1
 48
3.0
100
AcDbLine
 10
690.1378281448442
 20
445.7271803549105
 30
0.0
 11
680.9978281448447
 21
445.7271803549105
 31
0.0
  0
LINE
  5
331ED
330
1F
100
AcDbEntity
  8
CONTINUOUS1
 48
3.0
100
AcDbLine
 10
695.297828144844
 20
431.6421803549105
 30
0.0
 11
693.297828144844
 21
431.6421803549105
 31
0.0
  0
LINE
  5
331EE
330
1F
100
AcDbEntity
  8
CONTINUOUS1
 48
3.0
100
AcDbLine
 10
695.297828144844
 20
424.1421803549106
 30
0.0
 11
695.297828144844
 21
431.6421803549105
 31
0.0
  0
LINE
  5
331EF
330
1F
100
AcDbEntity
  8
CONTINUOUS1
 48
3.0
100
AcDbLine
 10
693.297828144844
 20
448.8421803549104
 30
0.0
 11
693.297828144844
 21
440.24218035491
 31
0.0
  0
LINE
  5
331F0
330
1F
100
AcDbEntity
  8
CONTINUOUS1
 48
3.0
100
AcDbLine
 10
693.297828144844
 20
431.6421803549105
 30
0.0
 11
693.297828144844
 21
440.24218035491
 31
0.0
  0
LINE
  5
331F1
330
1F
100
AcDbEntity
  8
CONTINUOUS1
 48
3.0
100
AcDbLine
 10
695.297828144844
 20
448.8421803549104
 30
0.0
 11
693.297828144844
 21
448.8421803549104
 31
0.0
  0
LINE
  5
331F2
330
1F
100
AcDbEntity
  8
CONTINUOUS1
 48
3.0
100
AcDbLine
 10
696.1978281448437
 20
424.1421803549106
 30
0.0
 11
695.297828144844
 21
424.1421803549106
 31
0.0
  0
LINE
  5
331F3
330
1F
100
AcDbEntity
  8
CONTINUOUS1
 48
3.0
100
AcDbLine
 10
690.9978281448448
 20
428.24218035491
 30
0.0
 11
693.297828144844
 21
428.24218035491
 31
0.0
  0
LINE
  5
331F4
330
1F
100
AcDbEntity
  8
CONTINUOUS1
 48
3.0
100
AcDbLine
 10
666.1978281448437
 20
455.0421803549111
 30
0.0
 11
679.7978281448441
 21
455.0421803549111
 31
0.0
  0
LINE
  5
331F5
330
1F
100
AcDbEntity
  8
CONTINUOUS1
 48
3.0
100
AcDbLine
 10
664.9978281448447
 20
456.24218035491
 30
0.0
 11
680.9978281448447
 21
456.24218035491
 31
0.0
  0
LINE
  5
331F6
330
1F
100
AcDbEntity
  8
CONTINUOUS1
 48
3.0
100
AcDbLine
 10
665.9978281448448
 20
493.24218035491
 30
0.0
 11
665.9978281448448
 21
456.24218035491
 31
0.0
  0
LINE
  5
331F7
330
1F
100
AcDbEntity
  8
CONTINUOUS1
 48
3.0
100
AcDbLine
 10
653.1378281448442
 20
451.2111803549118
 30
0.0
 11
664.9978281448447
 21
451.2111803549118
 31
0.0
  0
ARC
  5
331F8
330
1F
100
AcDbEntity
  8
CONTINUOUS1
 48
3.0
100
AcDbCircle
 10
701.1978281448437
 20
482.6921803549107
 30
0.0
 40
4.99999999999572
100
AcDbArc
 50
116.1039999999354
 51
180.0
  0
LINE
  5
331F9
330
1F
100
AcDbEntity
  8
CONTINUOUS1
 48
3.0
100
AcDbLine
 10
679.9978281448447
 20
493.24218035491
 30
0.0
 11
679.9978281448447
 21
456.24218035491
 31
0.0
  0
LINE
  5
331FA
330
1F
100
AcDbEntity
  8
CONTINUOUS1
 48
3.0
100
AcDbLine
 10
689.8578281448435
 20
451.2111803549118
 30
0.0
 11
680.9978281448447
 21
451.2111803549118
 31
0.0
  0
LINE
  5
331FB
330
1F
100
AcDbEntity
  8
CONTINUOUS1
 48
3.0
100
AcDbLine
 10
696.1978281448437
 20
456.3421803549103
 30
0.0
 11
695.297828144844
 21
456.3421803549103
 31
0.0
  0
LINE
  5
331FC
330
1F
100
AcDbEntity
  8
CONTINUOUS1
 48
3.0
100
AcDbLine
 10
690.9978281448448
 20
452.24218035491
 30
0.0
 11
693.297828144844
 21
452.24218035491
 31
0.0
  0
LINE
  5
331FD
330
1F
100
AcDbEntity
  8
CONTINUOUS1
 48
3.0
100
AcDbLine
 10
729.0978281448542
 20
456.3421803549103
 30
0.0
 11
729.0978281448542
 21
448.8421803549104
 31
0.0
  0
LINE
  5
331FE
330
1F
100
AcDbEntity
  8
CONTINUOUS1
 48
3.0
100
AcDbLine
 10
728.1978281448437
 20
397.7921803549111
 30
0.0
 11
728.1978281448437
 21
482.6921803549107
 31
0.0
  0
LINE
  5
331FF
330
1F
100
AcDbEntity
  8
CONTINUOUS1
 48
3.0
100
AcDbLine
 10
733.3978281448444
 20
452.24218035491
 30
0.0
 11
733.3978281448444
 21
428.24218035491
 31
0.0
  0
LINE
  5
33200
330
1F
100
AcDbEntity
  8
CONTINUOUS1
 48
3.0
100
AcDbLine
 10
731.0978281448542
 20
452.24218035491
 30
0.0
 11
731.0978281448542
 21
428.24218035491
 31
0.0
  0
ARC
  5
33201
330
1F
100
AcDbEntity
  8
CONTINUOUS1
 48
3.0
100
AcDbCircle
 10
723.1978281448436
 20
397.7921803549111
 30
0.0
 40
5.00000000000134
100
AcDbArc
 50
296.1040000000519
 51
0.0
  0
ARC
  5
33202
330
1F
100
AcDbEntity
  8
CONTINUOUS1
 48
3.0
100
AcDbCircle
 10
712.1978281448437
 20
420.24218035491
 30
0.0
 40
30.0
100
AcDbArc
 50
270.0
 51
296.1040000000519
  0
ARC
  5
33203
330
1F
100
AcDbEntity
  8
CONTINUOUS1
 48
3.0
100
AcDbCircle
 10
734.3978281448444
 20
432.24218035491
 30
0.0
 40
1.0
100
AcDbArc
 50
180.0
 51
270.0
  0
ARC
  5
33204
330
1F
100
AcDbEntity
  8
CONTINUOUS1
 48
3.0
100
AcDbCircle
 10
744.3978281448444
 20
448.24218035491
 30
0.0
 40
1.0
100
AcDbArc
 50
0.0
 51
90.0
  0
ARC
  5
33205
330
1F
100
AcDbEntity
  8
CONTINUOUS1
 48
3.0
100
AcDbCircle
 10
744.3978281448444
 20
432.24218035491
 30
0.0
 40
1.0
100
AcDbArc
 50
270.0
 51
0.0
  0
ARC
  5
33206
330
1F
100
AcDbEntity
  8
CONTINUOUS1
 48
3.0
100
AcDbCircle
 10
734.3978281448444
 20
448.24218035491
 30
0.0
 40
1.0
100
AcDbArc
 50
90.0
 51
180.0
  0
LINE
  5
33207
330
1F
100
AcDbEntity
  8
CONTINUOUS1
 48
3.0
100
AcDbLine
 10
729.0978281448542
 20
424.1421803549106
 30
0.0
 11
729.0978281448542
 21
431.6421803549105
 31
0.0
  0
LINE
  5
33208
330
1F
100
AcDbEntity
  8
CONTINUOUS1
 48
3.0
100
AcDbLine
 10
729.0978281448542
 20
431.6421803549105
 30
0.0
 11
731.0978281448542
 21
431.6421803549105
 31
0.0
  0
LINE
  5
33209
330
1F
100
AcDbEntity
  8
CONTINUOUS1
 48
3.0
100
AcDbLine
 10
728.1978281448437
 20
424.1421803549106
 30
0.0
 11
729.0978281448542
 21
424.1421803549106
 31
0.0
  0
LINE
  5
3320A
330
1F
100
AcDbEntity
  8
CONTINUOUS1
 48
3.0
100
AcDbLine
 10
729.0978281448542
 20
448.8421803549104
 30
0.0
 11
731.0978281448542
 21
448.8421803549104
 31
0.0
  0
LINE
  5
3320B
330
1F
100
AcDbEntity
  8
CONTINUOUS1
 48
3.0
100
AcDbLine
 10
731.0978281448542
 20
431.6421803549105
 30
0.0
 11
731.0978281448542
 21
440.24218035491
 31
0.0
  0
LINE
  5
3320C
330
1F
100
AcDbEntity
  8
CONTINUOUS1
 48
3.0
100
AcDbLine
 10
731.0978281448542
 20
448.8421803549104
 30
0.0
 11
731.0978281448542
 21
440.24218035491
 31
0.0
  0
LINE
  5
3320D
330
1F
100
AcDbEntity
  8
CONTINUOUS1
 48
3.0
100
AcDbLine
 10
744.3978281448444
 20
431.24218035491
 30
0.0
 11
734.3978281448444
 21
431.24218035491
 31
0.0
  0
LINE
  5
3320E
330
1F
100
AcDbEntity
  8
CONTINUOUS1
 48
3.0
100
AcDbLine
 10
733.3978281448444
 20
448.24218035491
 30
0.0
 11
733.3978281448444
 21
432.24218035491
 31
0.0
  0
LINE
  5
3320F
330
1F
100
AcDbEntity
  8
CONTINUOUS1
 48
3.0
100
AcDbLine
 10
745.3978281448444
 20
448.24218035491
 30
0.0
 11
745.3978281448444
 21
432.24218035491
 31
0.0
  0
LINE
  5
33210
330
1F
100
AcDbEntity
  8
CONTINUOUS1
 48
3.0
100
AcDbLine
 10
744.3978281448444
 20
449.24218035491
 30
0.0
 11
734.3978281448444
 21
449.24218035491
 31
0.0
  0
LINE
  5
33211
330
1F
100
AcDbEntity
  8
CONTINUOUS1
 48
3.0
100
AcDbLine
 10
731.0978281448542
 20
428.24218035491
 30
0.0
 11
733.3978281448444
 21
428.24218035491
 31
0.0
  0
LINE
  5
33212
330
1F
100
AcDbEntity
  8
CONTINUOUS1
 48
3.0
100
AcDbLine
 10
744.3978281448444
 20
448.24218035491
 30
0.0
 11
734.3978281448444
 21
448.24218035491
 31
0.0
  0
LINE
  5
33213
330
1F
100
AcDbEntity
  8
CONTINUOUS1
 48
3.0
100
AcDbLine
 10
744.3978281448444
 20
432.24218035491
 30
0.0
 11
734.3978281448444
 21
432.24218035491
 31
0.0
  0
LINE
  5
33214
330
1F
100
AcDbEntity
  8
CONTINUOUS1
 48
3.0
100
AcDbLine
 10
744.3978281448444
 20
446.24218035491
 30
0.0
 11
734.3978281448444
 21
446.24218035491
 31
0.0
  0
LINE
  5
33215
330
1F
100
AcDbEntity
  8
CONTINUOUS1
 48
3.0
100
AcDbLine
 10
744.3978281448444
 20
434.24218035491
 30
0.0
 11
734.3978281448444
 21
434.24218035491
 31
0.0
  0
LINE
  5
33216
330
1F
100
AcDbEntity
  8
CONTINUOUS1
 48
3.0
100
AcDbLine
 10
744.3978281448444
 20
444.24218035491
 30
0.0
 11
734.3978281448444
 21
444.24218035491
 31
0.0
  0
LINE
  5
33217
330
1F
100
AcDbEntity
  8
CONTINUOUS1
 48
3.0
100
AcDbLine
 10
744.3978281448444
 20
436.24218035491
 30
0.0
 11
734.3978281448444
 21
436.24218035491
 31
0.0
  0
LINE
  5
33218
330
1F
100
AcDbEntity
  8
CONTINUOUS1
 48
3.0
100
AcDbLine
 10
744.3978281448444
 20
442.24218035491
 30
0.0
 11
734.3978281448444
 21
442.24218035491
 31
0.0
  0
LINE
  5
33219
330
1F
100
AcDbEntity
  8
CONTINUOUS1
 48
3.0
100
AcDbLine
 10
744.3978281448444
 20
440.24218035491
 30
0.0
 11
734.3978281448444
 21
440.24218035491
 31
0.0
  0
LINE
  5
3321A
330
1F
100
AcDbEntity
  8
CONTINUOUS1
 48
3.0
100
AcDbLine
 10
744.3978281448444
 20
438.24218035491
 30
0.0
 11
734.3978281448444
 21
438.24218035491
 31
0.0
  0
ARC
  5
3321B
330
1F
100
AcDbEntity
  8
CONTINUOUS1
 48
3.0
100
AcDbCircle
 10
712.1978281448437
 20
460.24218035491
 30
0.0
 40
30.00000000000494
100
AcDbArc
 50
63.89609999996152
 51
90.0
  0
ARC
  5
3321C
330
1F
100
AcDbEntity
  8
CONTINUOUS1
 48
3.0
100
AcDbCircle
 10
723.1978281448436
 20
482.6921803549107
 30
0.0
 40
5.0
100
AcDbArc
 50
0.0
 51
63.89609999996152
  0
LINE
  5
3321D
330
1F
100
AcDbEntity
  8
CONTINUOUS1
 48
3.0
100
AcDbLine
 10
728.1978281448437
 20
456.3421803549103
 30
0.0
 11
729.0978281448542
 21
456.3421803549103
 31
0.0
  0
LINE
  5
3321E
330
1F
100
AcDbEntity
  8
CONTINUOUS1
 48
3.0
100
AcDbLine
 10
731.0978281448542
 20
452.24218035491
 30
0.0
 11
733.3978281448444
 21
452.24218035491
 31
0.0
  0
LINE
  5
3321F
330
1F
100
AcDbEntity
  8
CONTINUOUS1
 48
3.0
100
AcDbLine
 10
665.9978281448448
 20
726.74218035491
 30
0.0
 11
613.9978281448447
 21
726.74218035491
 31
0.0
  0
LINE
  5
33221
330
1F
100
AcDbEntity
  8
CONTINUOUS1
 48
3.0
100
AcDbLine
 10
613.9978281448447
 20
762.7421803549148
 30
0.0
 11
613.9978281448447
 21
700.8011803549111
 31
0.0
  0
LINE
  5
33222
330
1F
100
AcDbEntity
  8
CONTINUOUS1
 48
3.0
100
AcDbLine
 10
609.9978281448447
 20
762.7421803549148
 30
0.0
 11
609.9978281448447
 21
700.8011803549111
 31
0.0
  0
LINE
  5
33223
330
1F
100
AcDbEntity
  8
CONTINUOUS1
 48
3.0
100
AcDbLine
 10
609.9978281448447
 20
700.8011803549111
 30
0.0
 11
613.9978281448447
 21
700.8011803549111
 31
0.0
  0
ARC
  5
33233
330
1F
100
AcDbEntity
  8
CONTINUOUS1
 48
3.0
100
AcDbCircle
 10
672.9978281448447
 20
720.49218035491
 30
0.0
 40
13.24999999999988
100
AcDbArc
 50
62.08989999999655
 51
117.9099999999597
  0
LINE
  5
33234
330
1F
100
AcDbEntity
  8
CONTINUOUS1
 48
3.0
100
AcDbLine
 10
665.9978281448448
 20
726.74218035491
 30
0.0
 11
679.9978281448447
 21
726.74218035491
 31
0.0
  0
LINE
  5
33235
330
1F
100
AcDbEntity
  8
CONTINUOUS1
 48
3.0
100
AcDbLine
 10
679.9978281448447
 20
729.74218035491
 30
0.0
 11
665.9978281448448
 21
729.74218035491
 31
0.0
  0
LINE
  5
33236
330
1F
100
AcDbEntity
  8
CONTINUOUS1
 48
3.0
100
AcDbLine
 10
679.9978281448447
 20
729.74218035491
 30
0.0
 11
665.9978281448448
 21
729.74218035491
 31
0.0
  0
ARC
  5
33237
330
1F
100
AcDbEntity
  8
CONTINUOUS1
 48
3.0
100
AcDbCircle
 10
667.4978281448447
 20
730.8751803549098
 30
0.0
 40
1.500000000001047
100
AcDbArc
 50
117.9099999999845
 51
180.0
  0
LINE
  5
33239
330
1F
100
AcDbEntity
  8
CONTINUOUS1
 48
3.0
100
AcDbLine
 10
665.9978281448448
 20
729.74218035491
 30
0.0
 11
665.9978281448448
 21
726.74218035491
 31
0.0
  0
LINE
  5
3323A
330
1F
100
AcDbEntity
  8
CONTINUOUS1
 48
3.0
100
AcDbLine
 10
665.9978281448448
 20
730.24218035491
 30
0.0
 11
665.9978281448448
 21
729.74218035491
 31
0.0
  0
LINE
  5
3323B
330
1F
100
AcDbEntity
  8
CONTINUOUS1
 48
3.0
100
AcDbLine
 10
665.9978281448448
 20
730.8751803549098
 30
0.0
 11
665.9978281448448
 21
729.74218035491
 31
0.0
  0
ARC
  5
3323C
330
1F
100
AcDbEntity
  8
CONTINUOUS1
 48
3.0
100
AcDbCircle
 10
678.4978281448448
 20
730.8751803549098
 30
0.0
 40
1.5
100
AcDbArc
 50
0.0
 51
62.08989999999655
  0
LINE
  5
3323D
330
1F
100
AcDbEntity
  8
CONTINUOUS1
 48
3.0
100
AcDbLine
 10
679.9978281448447
 20
726.74218035491
 30
0.0
 11
681.297828144844
 21
726.74218035491
 31
0.0
  0
LINE
  5
3323E
330
1F
100
AcDbEntity
  8
CONTINUOUS1
 48
3.0
100
AcDbLine
 10
679.9978281448447
 20
729.74218035491
 30
0.0
 11
679.9978281448447
 21
726.74218035491
 31
0.0
  0
LINE
  5
3323F
330
1F
100
AcDbEntity
  8
CONTINUOUS1
 48
3.0
100
AcDbLine
 10
679.9978281448447
 20
730.8751803549098
 30
0.0
 11
679.9978281448447
 21
729.74218035491
 31
0.0
  0
LINE
  5
33240
330
1F
100
AcDbEntity
  8
CONTINUOUS1
 48
3.0
100
AcDbLine
 10
679.9978281448447
 20
730.24218035491
 30
0.0
 11
679.9978281448447
 21
729.74218035491
 31
0.0
  0
LINE
  5
3324E
330
1F
100
AcDbEntity
  8
CENTER
 48
3.0
100
AcDbLine
 10
426.9978281448447
 20
1560.912180354911
 30
0.0
 11
426.9978281448447
 21
340.6218895199904
 31
0.0
  0
LINE
  5
3324F
330
1F
100
AcDbEntity
  8
PHANTOM
 48
3.0
100
AcDbLine
 10
776.9978281448447
 20
390.6218895199904
 30
0.0
 11
76.99782814484525
 21
390.6218895199904
 31
0.0
  0
LINE
  5
33250
330
1F
100
AcDbEntity
  8
CONTINUOUS1
 48
3.0
100
AcDbLine
 10
716.9978281448429
 20
1451.842180354917
 30
0.0
 11
136.9978281448448
 21
1451.842180354917
 31
0.0
  0
LINE
  5
33251
330
1F
100
AcDbEntity
  8
CONTINUOUS1
 48
3.0
100
AcDbLine
 10
721.9978281448447
 20
1470.91218035491
 30
0.0
 11
131.9978281448447
 21
1470.912180354911
 31
0.0
  0
LINE
  5
33252
330
1F
100
AcDbEntity
  8
CONTINUOUS1
 48
3.0
100
AcDbLine
 10
716.9978281448448
 20
1510.912180354911
 30
0.0
 11
136.9978281448448
 21
1510.91218035491
 31
0.0
  0
LINE
  5
33253
330
1F
100
AcDbEntity
  8
CONTINUOUS1
 48
3.0
100
AcDbLine
 10
726.9978281448447
 20
1500.912180354911
 30
0.0
 11
726.9978281448447
 21
1475.91218035491
 31
0.0
  0
ARC
  5
33254
330
1F
100
AcDbEntity
  8
CONTINUOUS1
 48
3.0
100
AcDbCircle
 10
716.9978281448429
 20
1441.842180354917
 30
0.0
 40
10.0
100
AcDbArc
 50
0.0000000000005668
 51
90.0
  0
ARC
  5
33255
330
1F
100
AcDbEntity
  8
CONTINUOUS1
 48
3.0
100
AcDbCircle
 10
721.9978281448447
 20
1475.91218035491
 30
0.0
 40
5.0
100
AcDbArc
 50
270.0
 51
0.000000000000007
  0
ARC
  5
33256
330
1F
100
AcDbEntity
  8
CONTINUOUS1
 48
3.0
100
AcDbCircle
 10
716.9978281448448
 20
1500.912180354911
 30
0.0
 40
10.0
100
AcDbArc
 50
0.000000000000007
 51
90.0
  0
LINE
  5
33257
330
1F
100
AcDbEntity
  8
CONTINUOUS1
 48
3.0
100
AcDbLine
 10
126.9978281448447
 20
1500.912180354911
 30
0.0
 11
126.9978281448447
 21
1475.912180354911
 31
0.0
  0
ARC
  5
33258
330
1F
100
AcDbEntity
  8
CONTINUOUS1
 48
3.0
100
AcDbCircle
 10
136.9978281448448
 20
1441.842180354917
 30
0.0
 40
10.0
100
AcDbArc
 50
90.0
 51
180.0
  0
ARC
  5
33259
330
1F
100
AcDbEntity
  8
CONTINUOUS1
 48
3.0
100
AcDbCircle
 10
131.9978281448447
 20
1475.912180354911
 30
0.0
 40
5.0
100
AcDbArc
 50
180.0
 51
269.9999999999998
  0
ARC
  5
3325A
330
1F
100
AcDbEntity
  8
CONTINUOUS1
 48
3.0
100
AcDbCircle
 10
136.9978281448448
 20
1500.912180354911
 30
0.0
 40
10.0
100
AcDbArc
 50
90.0
 51
180.0
  0
LINE
  5
3325B
330
1F
100
AcDbEntity
  8
CONTINUOUS1
 48
3.0
100
AcDbLine
 10
126.9978281448447
 20
1441.842180354917
 30
0.0
 11
126.9978281448447
 21
813.6531803549106
 31
0.0
  0
LINE
  5
3325C
330
1F
100
AcDbEntity
  8
CONTINUOUS1
 48
3.0
100
AcDbLine
 10
726.9978281448429
 20
1441.842180354917
 30
0.0
 11
726.9978281448488
 21
813.6531803549109
 31
0.0
  0
LINE
  5
3325D
330
1F
100
AcDbEntity
  8
CONTINUOUS1
 48
3.0
100
AcDbLine
 10
681.9978281448448
 20
762.7421803549148
 30
0.0
 11
171.9978281448447
 21
762.7421803549147
 31
0.0
  0
LINE
  5
3325E
330
1F
100
AcDbEntity
  8
CONTINUOUS1
 48
3.0
100
AcDbLine
 10
686.9978281448489
 20
773.6531803549105
 30
0.0
 11
166.9978281448447
 21
773.6531803549106
 31
0.0
  0
ARC
  5
3325F
330
1F
100
AcDbEntity
  8
CONTINUOUS1
 48
3.0
100
AcDbCircle
 10
681.9978281448448
 20
792.7421803549147
 30
0.0
 40
30.0
100
AcDbArc
 50
270.0
 51
335.9332406664281
  0
ARC
  5
33260
330
1F
100
AcDbEntity
  8
CONTINUOUS1
 48
3.0
100
AcDbCircle
 10
686.9978281448489
 20
813.6531803549106
 30
0.0
 40
40.0
100
AcDbArc
 50
270.0
 51
0.0000000000005413
  0
ARC
  5
33261
330
1F
100
AcDbEntity
  8
CONTINUOUS1
 48
3.0
100
AcDbCircle
 10
166.9978281448447
 20
813.6531803549106
 30
0.0
 40
40.0
100
AcDbArc
 50
180.0
 51
270.0
  0
ARC
  5
33262
330
1F
100
AcDbEntity
  8
CONTINUOUS1
 48
3.0
100
AcDbCircle
 10
171.9978281448447
 20
792.7421803549147
 30
0.0
 40
30.0
100
AcDbArc
 50
204.0667593335718
 51
270.0
  0
TEXT
  5
3328E
330
1F
100
AcDbEntity
  8
0
100
AcDbText
 10
1757.694882460437
 20
49.5751042406464
 30
0.0
 40
50.0
  1
1:10
  7
Roman
100
AcDbText
  0
LINE
  5
332C1
330
1F
100
AcDbEntity
  8
CONTINUOUS1
 48
3.0
100
AcDbLine
 10
1109.878764539393
 20
2431.297498417601
 30
0.0
 11
1093.878764539393
 21
2431.297498417601
 31
0.0
  0
LINE
  5
332C2
330
1F
100
AcDbEntity
  8
CONTINUOUS1
 48
3.0
100
AcDbLine
 10
1113.878764539393
 20
2431.297498417601
 30
0.0
 11
1089.878764539393
 21
2431.297498417601
 31
0.0
  0
LINE
  5
332C3
330
1F
100
AcDbEntity
  8
CONTINUOUS1
 48
3.0
100
AcDbLine
 10
1113.878764539393
 20
2428.9974984176
 30
0.0
 11
1089.878764539393
 21
2428.9974984176
 31
0.0
  0
LINE
  5
332C4
330
1F
100
AcDbEntity
  8
CONTINUOUS1
 48
3.0
100
AcDbLine
 10
1059.428764539393
 20
2426.0974984176
 30
0.0
 11
1144.328764539393
 21
2426.0974984176
 31
0.0
  0
LINE
  5
332C5
330
1F
100
AcDbEntity
  8
CONTINUOUS1
 48
3.0
100
AcDbLine
 10
1110.478764539392
 20
2428.9974984176
 30
0.0
 11
1101.878764539393
 21
2428.9974984176
 31
0.0
  0
LINE
  5
332C6
330
1F
100
AcDbEntity
  8
CONTINUOUS1
 48
3.0
100
AcDbLine
 10
1109.878764539393
 20
2443.297498417601
 30
0.0
 11
1093.878764539393
 21
2443.297498417601
 31
0.0
  0
LINE
  5
332C7
330
1F
100
AcDbEntity
  8
CONTINUOUS1
 48
3.0
100
AcDbLine
 10
1103.878764539393
 20
2442.297498417602
 30
0.0
 11
1103.878764539393
 21
2432.297498417602
 31
0.0
  0
ARC
  5
332C8
330
1F
100
AcDbEntity
  8
CONTINUOUS1
 48
3.0
100
AcDbCircle
 10
1109.878764539393
 20
2442.297498417602
 30
0.0
 40
1.0
100
AcDbArc
 50
0.000000000000007
 51
90.0
  0
ARC
  5
332C9
330
1F
100
AcDbEntity
  8
CONTINUOUS1
 48
3.0
100
AcDbCircle
 10
1109.878764539393
 20
2432.297498417602
 30
0.0
 40
1.0
100
AcDbArc
 50
270.0
 51
0.000000000000007
  0
LINE
  5
332CA
330
1F
100
AcDbEntity
  8
CONTINUOUS1
 48
3.0
100
AcDbLine
 10
1117.978764539392
 20
2426.9974984176
 30
0.0
 11
1110.478764539392
 21
2426.9974984176
 31
0.0
  0
LINE
  5
332CB
330
1F
100
AcDbEntity
  8
CONTINUOUS1
 48
3.0
100
AcDbLine
 10
1110.478764539392
 20
2426.9974984176
 30
0.0
 11
1110.478764539392
 21
2428.9974984176
 31
0.0
  0
LINE
  5
332CC
330
1F
100
AcDbEntity
  8
CONTINUOUS1
 48
3.0
100
AcDbLine
 10
1117.978764539392
 20
2426.0974984176
 30
0.0
 11
1117.978764539392
 21
2426.9974984176
 31
0.0
  0
LINE
  5
332CD
330
1F
100
AcDbEntity
  8
CONTINUOUS1
 48
3.0
100
AcDbLine
 10
1113.878764539393
 20
2428.9974984176
 30
0.0
 11
1113.878764539393
 21
2431.297498417601
 31
0.0
  0
LINE
  5
332CE
330
1F
100
AcDbEntity
  8
CONTINUOUS1
 48
3.0
100
AcDbLine
 10
1110.878764539393
 20
2442.297498417602
 30
0.0
 11
1110.878764539393
 21
2432.297498417602
 31
0.0
  0
LINE
  5
332CF
330
1F
100
AcDbEntity
  8
CONTINUOUS1
 48
3.0
100
AcDbLine
 10
1109.878764539393
 20
2442.297498417602
 30
0.0
 11
1109.878764539393
 21
2432.297498417602
 31
0.0
  0
LINE
  5
332D0
330
1F
100
AcDbEntity
  8
CONTINUOUS1
 48
3.0
100
AcDbLine
 10
1107.878764539393
 20
2442.297498417602
 30
0.0
 11
1107.878764539393
 21
2432.297498417602
 31
0.0
  0
LINE
  5
332D1
330
1F
100
AcDbEntity
  8
CONTINUOUS1
 48
3.0
100
AcDbLine
 10
1105.878764539393
 20
2442.297498417602
 30
0.0
 11
1105.878764539393
 21
2432.297498417602
 31
0.0
  0
LINE
  5
332D2
330
1F
100
AcDbEntity
  8
CONTINUOUS1
 48
3.0
100
AcDbLine
 10
1093.278764539394
 20
2428.9974984176
 30
0.0
 11
1101.878764539393
 21
2428.9974984176
 31
0.0
  0
LINE
  5
332D3
330
1F
100
AcDbEntity
  8
CONTINUOUS1
 48
3.0
100
AcDbLine
 10
1101.878764539393
 20
2442.297498417602
 30
0.0
 11
1101.878764539393
 21
2432.297498417602
 31
0.0
  0
LINE
  5
332D4
330
1F
100
AcDbEntity
  8
CONTINUOUS1
 48
3.0
100
AcDbLine
 10
1099.878764539393
 20
2442.297498417602
 30
0.0
 11
1099.878764539393
 21
2432.297498417602
 31
0.0
  0
ARC
  5
332D5
330
1F
100
AcDbEntity
  8
CONTINUOUS1
 48
3.0
100
AcDbCircle
 10
1093.878764539393
 20
2442.297498417602
 30
0.0
 40
1.0
100
AcDbArc
 50
90.0
 51
180.0
  0
ARC
  5
332D6
330
1F
100
AcDbEntity
  8
CONTINUOUS1
 48
3.0
100
AcDbCircle
 10
1093.878764539393
 20
2432.297498417602
 30
0.0
 40
1.0
100
AcDbArc
 50
180.0
 51
270.0
  0
LINE
  5
332D7
330
1F
100
AcDbEntity
  8
CONTINUOUS1
 48
3.0
100
AcDbLine
 10
1085.778764539394
 20
2426.9974984176
 30
0.0
 11
1093.278764539394
 21
2426.9974984176
 31
0.0
  0
LINE
  5
332D8
330
1F
100
AcDbEntity
  8
CONTINUOUS1
 48
3.0
100
AcDbLine
 10
1093.278764539394
 20
2426.9974984176
 30
0.0
 11
1093.278764539394
 21
2428.9974984176
 31
0.0
  0
LINE
  5
332D9
330
1F
100
AcDbEntity
  8
CONTINUOUS1
 48
3.0
100
AcDbLine
 10
1085.778764539394
 20
2426.0974984176
 30
0.0
 11
1085.778764539394
 21
2426.9974984176
 31
0.0
  0
LINE
  5
332DA
330
1F
100
AcDbEntity
  8
CONTINUOUS1
 48
3.0
100
AcDbLine
 10
1089.878764539393
 20
2428.9974984176
 30
0.0
 11
1089.878764539393
 21
2431.297498417601
 31
0.0
  0
LINE
  5
332DB
330
1F
100
AcDbEntity
  8
CONTINUOUS1
 48
3.0
100
AcDbLine
 10
1092.878764539393
 20
2442.297498417602
 30
0.0
 11
1092.878764539393
 21
2432.297498417602
 31
0.0
  0
LINE
  5
332DC
330
1F
100
AcDbEntity
  8
CONTINUOUS1
 48
3.0
100
AcDbLine
 10
1093.878764539393
 20
2442.297498417602
 30
0.0
 11
1093.878764539393
 21
2432.297498417602
 31
0.0
  0
LINE
  5
332DD
330
1F
100
AcDbEntity
  8
CONTINUOUS1
 48
3.0
100
AcDbLine
 10
1095.878764539393
 20
2442.297498417602
 30
0.0
 11
1095.878764539393
 21
2432.297498417602
 31
0.0
  0
LINE
  5
332DE
330
1F
100
AcDbEntity
  8
CONTINUOUS1
 48
3.0
100
AcDbLine
 10
1097.878764539393
 20
2442.297498417602
 30
0.0
 11
1097.878764539393
 21
2432.297498417602
 31
0.0
  0
ARC
  5
332DF
330
1F
100
AcDbEntity
  8
CONTINUOUS1
 48
3.0
100
AcDbCircle
 10
1059.428764539393
 20
2421.097498417601
 30
0.0
 40
5.000000000000523
100
AcDbArc
 50
90.0
 51
130.5358021113468
  0
ARC
  5
332E4
330
1F
100
AcDbEntity
  8
CONTINUOUS1
 48
3.0
100
AcDbCircle
 10
1144.328764539393
 20
2421.097498417601
 30
0.0
 40
5.0
100
AcDbArc
 50
49.46419788865667
 51
90.0
  0
LINE
  5
332E6
330
1F
100
AcDbEntity
  8
CONTINUOUS1
 48
3.0
100
AcDbLine
 10
1133.488764539406
 20
1844.8974984176
 30
0.0
 11
1133.488764539406
 21
2312.8974984176
 31
0.0
  0
LINE
  5
332ED
330
1F
100
AcDbEntity
  8
CONTINUOUS1
 48
3.0
100
AcDbLine
 10
1133.488764539406
 20
2312.8974984176
 30
0.0
 11
1118.988764539406
 21
2312.8974984176
 31
0.0
  0
LINE
  5
332EE
330
1F
100
AcDbEntity
  8
CONTINUOUS1
 48
3.0
100
AcDbLine
 10
1133.488764539406
 20
2322.3974984176
 30
0.0
 11
1118.988764539406
 21
2322.3974984176
 31
0.0
  0
LINE
  5
332EF
330
1F
100
AcDbEntity
  8
CONTINUOUS1
 48
3.0
100
AcDbLine
 10
1118.988764539406
 20
2312.8974984176
 30
0.0
 11
1118.988764539406
 21
2322.3974984176
 31
0.0
  0
LINE
  5
332F0
330
1F
100
AcDbEntity
  8
CONTINUOUS1
 48
3.0
100
AcDbLine
 10
1133.488764539406
 20
2404.8974984176
 30
0.0
 11
1113.988764539396
 21
2404.8974984176
 31
0.0
  0
LINE
  5
332F1
330
1F
100
AcDbEntity
  8
CONTINUOUS1
 48
3.0
100
AcDbLine
 10
1133.488764539406
 20
2322.3974984176
 30
0.0
 11
1133.488764539406
 21
2404.8974984176
 31
0.0
  0
LINE
  5
332FF
330
1F
100
AcDbEntity
  8
CONTINUOUS1
 48
3.0
100
AcDbLine
 10
950.4887645393957
 20
1844.8974984176
 30
0.0
 11
950.4887645393955
 21
2312.8974984176
 31
0.0
  0
LINE
  5
33300
330
1F
100
AcDbEntity
  8
CONTINUOUS1
 48
3.0
100
AcDbLine
 10
950.4887645393955
 20
2322.3974984176
 30
0.0
 11
964.9887645393958
 21
2322.3974984176
 31
0.0
  0
LINE
  5
33301
330
1F
100
AcDbEntity
  8
CONTINUOUS1
 48
3.0
100
AcDbLine
 10
950.4887645393955
 20
2312.8974984176
 30
0.0
 11
964.9887645393958
 21
2312.8974984176
 31
0.0
  0
LINE
  5
33302
330
1F
100
AcDbEntity
  8
CONTINUOUS1
 48
3.0
100
AcDbLine
 10
964.9887645393958
 20
2312.8974984176
 30
0.0
 11
964.9887645393958
 21
2322.3974984176
 31
0.0
  0
LINE
  5
33303
330
1F
100
AcDbEntity
  8
CONTINUOUS1
 48
3.0
100
AcDbLine
 10
950.4887645393958
 20
2404.8974984176
 30
0.0
 11
969.9887645394055
 21
2404.8974984176
 31
0.0
  0
LINE
  5
33304
330
1F
100
AcDbEntity
  8
CONTINUOUS1
 48
3.0
100
AcDbLine
 10
950.4887645393955
 20
2322.3974984176
 30
0.0
 11
950.4887645393955
 21
2404.8974984176
 31
0.0
  0
LINE
  5
33305
330
1F
100
AcDbEntity
  8
CONTINUOUS1
 48
3.0
100
AcDbLine
 10
989.9887645393965
 20
1824.8974984176
 30
0.0
 11
1066.488774539396
 21
1824.8974984176
 31
0.0
  0
LINE
  5
33306
330
1F
100
AcDbEntity
  8
CONTINUOUS1
 48
3.0
100
AcDbLine
 10
950.4887645393955
 20
1927.397498417599
 30
0.0
 11
950.4887645393955
 21
1844.8974984176
 31
0.0
  0
LINE
  5
33307
330
1F
100
AcDbEntity
  8
CONTINUOUS1
 48
3.0
100
AcDbLine
 10
964.9887645393958
 20
1936.8974984176
 30
0.0
 11
964.9887645393958
 21
1927.3974984176
 31
0.0
  0
LINE
  5
33308
330
1F
100
AcDbEntity
  8
CONTINUOUS1
 48
3.0
100
AcDbLine
 10
950.4887645393955
 20
1936.8974984176
 30
0.0
 11
964.9887645393958
 21
1936.8974984176
 31
0.0
  0
LINE
  5
33309
330
1F
100
AcDbEntity
  8
CONTINUOUS1
 48
3.0
100
AcDbLine
 10
950.4887645393955
 20
1927.397498417599
 30
0.0
 11
964.9887645393958
 21
1927.3974984176
 31
0.0
  0
LINE
  5
3330A
330
1F
100
AcDbEntity
  8
CONTINUOUS1
 48
3.0
100
AcDbLine
 10
936.8787645393986
 20
1818.497498417598
 30
0.0
 11
952.8787645393986
 21
1818.497498417598
 31
0.0
  0
LINE
  5
3330B
330
1F
100
AcDbEntity
  8
CONTINUOUS1
 48
3.0
100
AcDbLine
 10
932.8787645393985
 20
1818.497498417598
 30
0.0
 11
956.8787645393985
 21
1818.497498417598
 31
0.0
  0
LINE
  5
3330C
330
1F
100
AcDbEntity
  8
CONTINUOUS1
 48
3.0
100
AcDbLine
 10
932.8787645393985
 20
1820.797498417599
 30
0.0
 11
956.8787645393985
 21
1820.797498417599
 31
0.0
  0
LINE
  5
3330D
330
1F
100
AcDbEntity
  8
CONTINUOUS1
 48
3.0
100
AcDbLine
 10
987.3287645393984
 20
1823.697498417599
 30
0.0
 11
902.4287645393988
 21
1823.697498417599
 31
0.0
  0
LINE
  5
3330E
330
1F
100
AcDbEntity
  8
CONTINUOUS1
 48
3.0
100
AcDbLine
 10
936.2787645393991
 20
1820.797498417599
 30
0.0
 11
944.8787645393986
 21
1820.797498417599
 31
0.0
  0
LINE
  5
3330F
330
1F
100
AcDbEntity
  8
CONTINUOUS1
 48
3.0
100
AcDbLine
 10
936.8787645393986
 20
1806.497498417598
 30
0.0
 11
952.8787645393986
 21
1806.497498417598
 31
0.0
  0
LINE
  5
33310
330
1F
100
AcDbEntity
  8
CONTINUOUS1
 48
3.0
100
AcDbLine
 10
914.8987645393972
 20
1824.8974984176
 30
0.0
 11
945.4487645394051
 21
1824.8974984176
 31
0.0
  0
ARC
  5
33311
330
1F
100
AcDbEntity
  8
CONTINUOUS1
 48
3.0
100
AcDbCircle
 10
924.8787645393987
 20
1839.697498417598
 30
0.0
 40
30.0000000000025
100
AcDbArc
 50
180.0
 51
206.1039000000384
  0
LINE
  5
33312
330
1F
100
AcDbEntity
  8
CONTINUOUS1
 48
3.0
100
AcDbLine
 10
904.8987645393973
 20
1855.6974984176
 30
0.0
 11
902.4287645393988
 21
1855.697498417599
 31
0.0
  0
ARC
  5
33313
330
1F
100
AcDbEntity
  8
CONTINUOUS1
 48
3.0
100
AcDbCircle
 10
902.4287645393988
 20
1850.697498417598
 30
0.0
 40
5.00000000000134
100
AcDbArc
 50
90.00000000000003
 51
153.895999999948
  0
ARC
  5
33314
330
1F
100
AcDbEntity
  8
CONTINUOUS1
 48
3.0
100
AcDbCircle
 10
924.8787645393987
 20
1839.697498417598
 30
0.0
 40
30.0
100
AcDbArc
 50
153.8960000000441
 51
180.0
  0
ARC
  5
33315
330
1F
100
AcDbEntity
  8
CONTINUOUS1
 48
3.0
100
AcDbCircle
 10
914.8987645393972
 20
1834.8974984176
 30
0.0
 40
10.0
100
AcDbArc
 50
180.0
 51
270.0
  0
ARC
  5
33316
330
1F
100
AcDbEntity
  8
CONTINUOUS1
 48
3.0
100
AcDbCircle
 10
902.4287645393988
 20
1828.697498417598
 30
0.0
 40
5.0
100
AcDbArc
 50
206.1039000000384
 51
270.0
  0
LINE
  5
33317
330
1F
100
AcDbEntity
  8
CONTINUOUS1
 48
3.0
100
AcDbLine
 10
942.8787645393986
 20
1807.497498417598
 30
0.0
 11
942.8787645393986
 21
1817.497498417599
 31
0.0
  0
ARC
  5
33318
330
1F
100
AcDbEntity
  8
CONTINUOUS1
 48
3.0
100
AcDbCircle
 10
936.8787645393986
 20
1807.497498417597
 30
0.0
 40
1.0
100
AcDbArc
 50
180.0
 51
270.0
  0
ARC
  5
33319
330
1F
100
AcDbEntity
  8
CONTINUOUS1
 48
3.0
100
AcDbCircle
 10
936.8787645393986
 20
1817.497498417598
 30
0.0
 40
1.0
100
AcDbArc
 50
90.00000000000003
 51
180.0
  0
LINE
  5
3331A
330
1F
100
AcDbEntity
  8
CONTINUOUS1
 48
3.0
100
AcDbLine
 10
928.7787645393992
 20
1822.797498417599
 30
0.0
 11
936.2787645393991
 21
1822.797498417599
 31
0.0
  0
LINE
  5
3331B
330
1F
100
AcDbEntity
  8
CONTINUOUS1
 48
3.0
100
AcDbLine
 10
936.2787645393991
 20
1822.797498417599
 30
0.0
 11
936.2787645393991
 21
1820.797498417599
 31
0.0
  0
LINE
  5
3331C
330
1F
100
AcDbEntity
  8
CONTINUOUS1
 48
3.0
100
AcDbLine
 10
928.7787645393992
 20
1823.697498417599
 30
0.0
 11
928.7787645393992
 21
1822.797498417599
 31
0.0
  0
LINE
  5
3331D
330
1F
100
AcDbEntity
  8
CONTINUOUS1
 48
3.0
100
AcDbLine
 10
932.8787645393985
 20
1820.797498417599
 30
0.0
 11
932.8787645393985
 21
1818.497498417598
 31
0.0
  0
LINE
  5
3331E
330
1F
100
AcDbEntity
  8
CONTINUOUS1
 48
3.0
100
AcDbLine
 10
935.8787645393986
 20
1807.497498417598
 30
0.0
 11
935.8787645393986
 21
1817.497498417599
 31
0.0
  0
LINE
  5
3331F
330
1F
100
AcDbEntity
  8
CONTINUOUS1
 48
3.0
100
AcDbLine
 10
936.8787645393986
 20
1807.497498417598
 30
0.0
 11
936.8787645393986
 21
1817.497498417599
 31
0.0
  0
LINE
  5
33320
330
1F
100
AcDbEntity
  8
CONTINUOUS1
 48
3.0
100
AcDbLine
 10
938.8787645393986
 20
1807.497498417598
 30
0.0
 11
938.8787645393986
 21
1817.497498417599
 31
0.0
  0
LINE
  5
33321
330
1F
100
AcDbEntity
  8
CONTINUOUS1
 48
3.0
100
AcDbLine
 10
940.8787645393985
 20
1807.497498417598
 30
0.0
 11
940.8787645393985
 21
1817.497498417599
 31
0.0
  0
ARC
  5
33322
330
1F
100
AcDbEntity
  8
CONTINUOUS1
 48
3.0
100
AcDbCircle
 10
989.9887645393965
 20
1844.8974984176
 30
0.0
 40
20.0
100
AcDbArc
 50
180.0
 51
270.0
  0
LINE
  5
33323
330
1F
100
AcDbEntity
  8
CONTINUOUS1
 48
3.0
100
AcDbLine
 10
950.4887645393958
 20
1844.8974984176
 30
0.0
 11
969.9887645394055
 21
1844.8974984176
 31
0.0
  0
ARC
  5
33324
330
1F
100
AcDbEntity
  8
CONTINUOUS1
 48
3.0
100
AcDbCircle
 10
945.4487645394051
 20
1829.8974984176
 30
0.0
 40
5.0
100
AcDbArc
 50
270.0
 51
0.0
  0
LINE
  5
33325
330
1F
100
AcDbEntity
  8
CONTINUOUS1
 48
3.0
100
AcDbLine
 10
953.4787645393972
 20
1820.797498417599
 30
0.0
 11
944.8787645393986
 21
1820.797498417599
 31
0.0
  0
LINE
  5
33326
330
1F
100
AcDbEntity
  8
CONTINUOUS1
 48
3.0
100
AcDbLine
 10
944.8787645393986
 20
1807.497498417598
 30
0.0
 11
944.8787645393986
 21
1817.497498417599
 31
0.0
  0
LINE
  5
33327
330
1F
100
AcDbEntity
  8
CONTINUOUS1
 48
3.0
100
AcDbLine
 10
946.8787645393986
 20
1807.497498417598
 30
0.0
 11
946.8787645393986
 21
1817.497498417599
 31
0.0
  0
ARC
  5
33328
330
1F
100
AcDbEntity
  8
CONTINUOUS1
 48
3.0
100
AcDbCircle
 10
952.8787645393986
 20
1807.497498417597
 30
0.0
 40
1.0
100
AcDbArc
 50
270.0
 51
0.0
  0
ARC
  5
33329
330
1F
100
AcDbEntity
  8
CONTINUOUS1
 48
3.0
100
AcDbCircle
 10
952.8787645393986
 20
1817.497498417598
 30
0.0
 40
1.0
100
AcDbArc
 50
0.0
 51
90.00000000000003
  0
LINE
  5
3332A
330
1F
100
AcDbEntity
  8
CONTINUOUS1
 48
3.0
100
AcDbLine
 10
960.9787645393971
 20
1822.797498417599
 30
0.0
 11
953.4787645393972
 21
1822.797498417599
 31
0.0
  0
LINE
  5
3332B
330
1F
100
AcDbEntity
  8
CONTINUOUS1
 48
3.0
100
AcDbLine
 10
953.4787645393972
 20
1822.797498417599
 30
0.0
 11
953.4787645393972
 21
1820.797498417599
 31
0.0
  0
LINE
  5
3332C
330
1F
100
AcDbEntity
  8
CONTINUOUS1
 48
3.0
100
AcDbLine
 10
960.9787645393971
 20
1823.697498417599
 30
0.0
 11
960.9787645393971
 21
1822.797498417599
 31
0.0
  0
LINE
  5
3332D
330
1F
100
AcDbEntity
  8
CONTINUOUS1
 48
3.0
100
AcDbLine
 10
956.8787645393985
 20
1820.797498417599
 30
0.0
 11
956.8787645393985
 21
1818.497498417598
 31
0.0
  0
LINE
  5
3332E
330
1F
100
AcDbEntity
  8
CONTINUOUS1
 48
3.0
100
AcDbLine
 10
953.8787645393986
 20
1807.497498417598
 30
0.0
 11
953.8787645393986
 21
1817.497498417599
 31
0.0
  0
LINE
  5
3332F
330
1F
100
AcDbEntity
  8
CONTINUOUS1
 48
3.0
100
AcDbLine
 10
952.8787645393986
 20
1807.497498417598
 30
0.0
 11
952.8787645393986
 21
1817.497498417599
 31
0.0
  0
LINE
  5
33330
330
1F
100
AcDbEntity
  8
CONTINUOUS1
 48
3.0
100
AcDbLine
 10
950.8787645393987
 20
1807.497498417598
 30
0.0
 11
950.8787645393987
 21
1817.497498417599
 31
0.0
  0
LINE
  5
33331
330
1F
100
AcDbEntity
  8
CONTINUOUS1
 48
3.0
100
AcDbLine
 10
948.8787645393985
 20
1807.497498417598
 30
0.0
 11
948.8787645393985
 21
1817.497498417599
 31
0.0
  0
ARC
  5
33332
330
1F
100
AcDbEntity
  8
CONTINUOUS1
 48
3.0
100
AcDbCircle
 10
987.3287645393984
 20
1828.697498417598
 30
0.0
 40
5.000000000000523
100
AcDbArc
 50
270.0
 51
310.5358021113468
  0
LINE
  5
33333
330
1F
100
AcDbEntity
  8
CONTINUOUS1
 48
3.0
100
AcDbLine
 10
1138.538764539394
 20
1824.8974984176
 30
0.0
 11
1169.078764539398
 21
1824.897498417599
 31
0.0
  0
LINE
  5
33334
330
1F
100
AcDbEntity
  8
CONTINUOUS1
 48
3.0
100
AcDbLine
 10
1133.488764539406
 20
1927.397498417599
 30
0.0
 11
1133.488764539406
 21
1844.8974984176
 31
0.0
  0
LINE
  5
33335
330
1F
100
AcDbEntity
  8
CONTINUOUS1
 48
3.0
100
AcDbLine
 10
1133.488764539406
 20
1927.397498417599
 30
0.0
 11
1118.988764539406
 21
1927.3974984176
 31
0.0
  0
LINE
  5
33336
330
1F
100
AcDbEntity
  8
CONTINUOUS1
 48
3.0
100
AcDbLine
 10
1133.488764539406
 20
1936.8974984176
 30
0.0
 11
1118.988764539406
 21
1936.8974984176
 31
0.0
  0
LINE
  5
33337
330
1F
100
AcDbEntity
  8
CONTINUOUS1
 48
3.0
100
AcDbLine
 10
1118.988764539406
 20
1936.8974984176
 30
0.0
 11
1118.988764539406
 21
1927.3974984176
 31
0.0
  0
ARC
  5
33338
330
1F
100
AcDbEntity
  8
CONTINUOUS1
 48
3.0
100
AcDbCircle
 10
1093.878764539393
 20
1817.497498417598
 30
0.0
 40
1.0
100
AcDbArc
 50
90.00000000000003
 51
180.0
  0
ARC
  5
33339
330
1F
100
AcDbEntity
  8
CONTINUOUS1
 48
3.0
100
AcDbCircle
 10
1093.878764539393
 20
1807.497498417597
 30
0.0
 40
1.0
100
AcDbArc
 50
180.0
 51
270.0
  0
LINE
  5
3333A
330
1F
100
AcDbEntity
  8
CONTINUOUS1
 48
3.0
100
AcDbLine
 10
1093.278764539394
 20
1820.797498417599
 30
0.0
 11
1101.878764539393
 21
1820.797498417599
 31
0.0
  0
LINE
  5
3333B
330
1F
100
AcDbEntity
  8
CONTINUOUS1
 48
3.0
100
AcDbLine
 10
1059.428764539393
 20
1823.697498417599
 30
0.0
 11
1144.328764539393
 21
1823.697498417599
 31
0.0
  0
LINE
  5
3333C
330
1F
100
AcDbEntity
  8
CONTINUOUS1
 48
3.0
100
AcDbLine
 10
1113.878764539393
 20
1820.797498417599
 30
0.0
 11
1089.878764539393
 21
1820.797498417599
 31
0.0
  0
LINE
  5
3333D
330
1F
100
AcDbEntity
  8
CONTINUOUS1
 48
3.0
100
AcDbLine
 10
1113.878764539393
 20
1818.497498417598
 30
0.0
 11
1089.878764539393
 21
1818.497498417598
 31
0.0
  0
LINE
  5
3333E
330
1F
100
AcDbEntity
  8
CONTINUOUS1
 48
3.0
100
AcDbLine
 10
1066.488774539396
 20
1824.8974984176
 30
0.0
 11
1093.988764539396
 21
1824.8974984176
 31
0.0
  0
ARC
  5
3333F
330
1F
100
AcDbEntity
  8
CONTINUOUS1
 48
3.0
100
AcDbCircle
 10
1059.428764539393
 20
1828.697498417598
 30
0.0
 40
5.000000000000523
100
AcDbArc
 50
229.4641978886531
 51
270.0
  0
LINE
  5
33340
330
1F
100
AcDbEntity
  8
CONTINUOUS1
 48
3.0
100
AcDbLine
 10
1092.878764539393
 20
1807.497498417598
 30
0.0
 11
1092.878764539393
 21
1817.497498417599
 31
0.0
  0
LINE
  5
33341
330
1F
100
AcDbEntity
  8
CONTINUOUS1
 48
3.0
100
AcDbLine
 10
1089.878764539393
 20
1820.797498417599
 30
0.0
 11
1089.878764539393
 21
1818.497498417598
 31
0.0
  0
LINE
  5
33342
330
1F
100
AcDbEntity
  8
CONTINUOUS1
 48
3.0
100
AcDbLine
 10
1085.778764539394
 20
1823.697498417599
 30
0.0
 11
1085.778764539394
 21
1822.797498417599
 31
0.0
  0
LINE
  5
33343
330
1F
100
AcDbEntity
  8
CONTINUOUS1
 48
3.0
100
AcDbLine
 10
1093.278764539394
 20
1822.797498417599
 30
0.0
 11
1093.278764539394
 21
1820.797498417599
 31
0.0
  0
LINE
  5
33344
330
1F
100
AcDbEntity
  8
CONTINUOUS1
 48
3.0
100
AcDbLine
 10
1085.778764539394
 20
1822.797498417599
 30
0.0
 11
1093.278764539394
 21
1822.797498417599
 31
0.0
  0
ARC
  5
33345
330
1F
100
AcDbEntity
  8
CONTINUOUS1
 48
3.0
100
AcDbCircle
 10
1093.988764539396
 20
1844.8974984176
 30
0.0
 40
20.0
100
AcDbArc
 50
270.0
 51
0.0
  0
LINE
  5
33346
330
1F
100
AcDbEntity
  8
CONTINUOUS1
 48
3.0
100
AcDbLine
 10
1133.488764539406
 20
1844.8974984176
 30
0.0
 11
1113.988764539396
 21
1844.8974984176
 31
0.0
  0
LINE
  5
33347
330
1F
100
AcDbEntity
  8
CONTINUOUS1
 48
3.0
100
AcDbLine
 10
1097.878764539393
 20
1807.497498417598
 30
0.0
 11
1097.878764539393
 21
1817.497498417599
 31
0.0
  0
LINE
  5
33348
330
1F
100
AcDbEntity
  8
CONTINUOUS1
 48
3.0
100
AcDbLine
 10
1095.878764539393
 20
1807.497498417598
 30
0.0
 11
1095.878764539393
 21
1817.497498417599
 31
0.0
  0
LINE
  5
33349
330
1F
100
AcDbEntity
  8
CONTINUOUS1
 48
3.0
100
AcDbLine
 10
1093.878764539393
 20
1807.497498417598
 30
0.0
 11
1093.878764539393
 21
1817.497498417599
 31
0.0
  0
LINE
  5
3334A
330
1F
100
AcDbEntity
  8
CONTINUOUS1
 48
3.0
100
AcDbLine
 10
1099.878764539393
 20
1807.497498417598
 30
0.0
 11
1099.878764539393
 21
1817.497498417599
 31
0.0
  0
LINE
  5
3334B
330
1F
100
AcDbEntity
  8
CONTINUOUS1
 48
3.0
100
AcDbLine
 10
1101.878764539393
 20
1807.497498417598
 30
0.0
 11
1101.878764539393
 21
1817.497498417599
 31
0.0
  0
LINE
  5
3334C
330
1F
100
AcDbEntity
  8
CONTINUOUS1
 48
3.0
100
AcDbLine
 10
1105.878764539393
 20
1807.497498417598
 30
0.0
 11
1105.878764539393
 21
1817.497498417599
 31
0.0
  0
LINE
  5
3334D
330
1F
100
AcDbEntity
  8
CONTINUOUS1
 48
3.0
100
AcDbLine
 10
1107.878764539393
 20
1807.497498417598
 30
0.0
 11
1107.878764539393
 21
1817.497498417599
 31
0.0
  0
LINE
  5
3334E
330
1F
100
AcDbEntity
  8
CONTINUOUS1
 48
3.0
100
AcDbLine
 10
1109.878764539393
 20
1807.497498417598
 30
0.0
 11
1109.878764539393
 21
1817.497498417599
 31
0.0
  0
LINE
  5
3334F
330
1F
100
AcDbEntity
  8
CONTINUOUS1
 48
3.0
100
AcDbLine
 10
1110.878764539393
 20
1807.497498417598
 30
0.0
 11
1110.878764539393
 21
1817.497498417599
 31
0.0
  0
LINE
  5
33350
330
1F
100
AcDbEntity
  8
CONTINUOUS1
 48
3.0
100
AcDbLine
 10
1113.878764539393
 20
1820.797498417599
 30
0.0
 11
1113.878764539393
 21
1818.497498417598
 31
0.0
  0
LINE
  5
33351
330
1F
100
AcDbEntity
  8
CONTINUOUS1
 48
3.0
100
AcDbLine
 10
1117.978764539392
 20
1823.697498417599
 30
0.0
 11
1117.978764539392
 21
1822.797498417599
 31
0.0
  0
LINE
  5
33352
330
1F
100
AcDbEntity
  8
CONTINUOUS1
 48
3.0
100
AcDbLine
 10
1110.478764539392
 20
1822.797498417599
 30
0.0
 11
1110.478764539392
 21
1820.797498417599
 31
0.0
  0
LINE
  5
33353
330
1F
100
AcDbEntity
  8
CONTINUOUS1
 48
3.0
100
AcDbLine
 10
1117.978764539392
 20
1822.797498417599
 30
0.0
 11
1110.478764539392
 21
1822.797498417599
 31
0.0
  0
ARC
  5
33354
330
1F
100
AcDbEntity
  8
CONTINUOUS1
 48
3.0
100
AcDbCircle
 10
1109.878764539393
 20
1817.497498417598
 30
0.0
 40
1.0
100
AcDbArc
 50
0.0
 51
90.00000000000003
  0
ARC
  5
33355
330
1F
100
AcDbEntity
  8
CONTINUOUS1
 48
3.0
100
AcDbCircle
 10
1109.878764539393
 20
1807.497498417597
 30
0.0
 40
1.0
100
AcDbArc
 50
270.0
 51
0.0
  0
LINE
  5
33356
330
1F
100
AcDbEntity
  8
CONTINUOUS1
 48
3.0
100
AcDbLine
 10
1103.878764539393
 20
1807.497498417598
 30
0.0
 11
1103.878764539393
 21
1817.497498417599
 31
0.0
  0
LINE
  5
33357
330
1F
100
AcDbEntity
  8
CONTINUOUS1
 48
3.0
100
AcDbLine
 10
1109.878764539393
 20
1806.497498417598
 30
0.0
 11
1093.878764539393
 21
1806.497498417598
 31
0.0
  0
LINE
  5
33358
330
1F
100
AcDbEntity
  8
CONTINUOUS1
 48
3.0
100
AcDbLine
 10
1110.478764539392
 20
1820.797498417599
 30
0.0
 11
1101.878764539393
 21
1820.797498417599
 31
0.0
  0
LINE
  5
33359
330
1F
100
AcDbEntity
  8
CONTINUOUS1
 48
3.0
100
AcDbLine
 10
1109.878764539393
 20
1818.497498417598
 30
0.0
 11
1093.878764539393
 21
1818.497498417598
 31
0.0
  0
ARC
  5
3335A
330
1F
100
AcDbEntity
  8
CONTINUOUS1
 48
3.0
100
AcDbCircle
 10
1144.328764539393
 20
1828.697498417598
 30
0.0
 40
5.0
100
AcDbArc
 50
270.0
 51
310.5358021113433
  0
ARC
  5
3335B
330
1F
100
AcDbEntity
  8
CONTINUOUS1
 48
3.0
100
AcDbCircle
 10
1138.538764539395
 20
1829.8974984176
 30
0.0
 40
5.0
100
AcDbArc
 50
180.0
 51
269.9999999999989
  0
ARC
  5
3335C
330
1F
100
AcDbEntity
  8
CONTINUOUS1
 48
3.0
100
AcDbCircle
 10
1169.078764539398
 20
1834.8974984176
 30
0.0
 40
10.0
100
AcDbArc
 50
270.0
 51
0.0
  0
LINE
  5
3335D
330
1F
100
AcDbEntity
  8
CONTINUOUS1
 48
3.0
100
AcDbLine
 10
475.9978281448448
 20
762.7421803549148
 30
0.0
 11
475.9978281448447
 21
726.74218035491
 31
0.0
  0
LINE
  5
3335E
330
1F
100
AcDbEntity
  8
CONTINUOUS1
 48
3.0
100
AcDbLine
 10
377.9978281448447
 20
762.7421803549148
 30
0.0
 11
377.9978281448447
 21
726.74218035491
 31
0.0
  0
LINE
  5
3335F
330
1F
100
AcDbEntity
  8
CONTINUOUS1
 48
3.0
100
AcDbLine
 10
389.9978281448447
 20
762.7421803549148
 30
0.0
 11
389.9978281448447
 21
726.74218035491
 31
0.0
  0
LINE
  5
33360
330
1F
100
AcDbEntity
  8
CONTINUOUS1
 48
3.0
100
AcDbLine
 10
1650.644116516374
 20
762.7421803549148
 30
0.0
 11
1650.644116516374
 21
727.1218895199904
 31
0.0
  0
LINE
  5
33361
330
1F
100
AcDbEntity
  8
CONTINUOUS1
 48
3.0
100
AcDbLine
 10
1552.644116516375
 20
762.7421803549148
 30
0.0
 11
1552.644116516375
 21
727.1218895199904
 31
0.0
  0
LINE
  5
33362
330
1F
100
AcDbEntity
  8
CONTINUOUS1
 48
3.0
100
AcDbLine
 10
1564.644116516375
 20
762.7421803549148
 30
0.0
 11
1564.644116516375
 21
727.1218895199904
 31
0.0
  0
LINE
  5
3341D
330
1F
100
AcDbEntity
  8
CONTINUOUS1
 48
3.0
100
AcDbLine
 10
146.9978281448452
 20
1470.912180354911
 30
0.0
 11
146.9978281448447
 21
1451.842180354917
 31
0.0
  0
LINE
  5
3341E
330
1F
100
AcDbEntity
  8
CONTINUOUS1
 48
3.0
100
AcDbLine
 10
229.4978281448442
 20
1470.912180354911
 30
0.0
 11
229.4978281448448
 21
1451.842180354917
 31
0.0
  0
LINE
  5
3341F
330
1F
100
AcDbEntity
  8
CONTINUOUS1
 48
3.0
100
AcDbLine
 10
238.9978281448447
 20
1470.912180354912
 30
0.0
 11
238.9978281448447
 21
1451.842180354917
 31
0.0
  0
LINE
  5
33421
330
1F
100
AcDbEntity
  8
CONTINUOUS1
 48
3.0
100
AcDbLine
 10
229.4978281448443
 20
1468.412180354911
 30
0.0
 11
238.9978281448447
 21
1468.412180354911
 31
0.0
  0
LINE
  5
33422
330
1F
100
AcDbEntity
  8
CONTINUOUS1
 48
3.0
100
AcDbLine
 10
706.9978281448443
 20
1470.912180354911
 30
0.0
 11
706.9978281448448
 21
1451.842180354917
 31
0.0
  0
LINE
  5
33423
330
1F
100
AcDbEntity
  8
CONTINUOUS1
 48
3.0
100
AcDbLine
 10
624.4978281448452
 20
1468.412180354911
 30
0.0
 11
614.9978281448447
 21
1468.412180354911
 31
0.0
  0
LINE
  5
33424
330
1F
100
AcDbEntity
  8
CONTINUOUS1
 48
3.0
100
AcDbLine
 10
624.4978281448453
 20
1470.91218035491
 30
0.0
 11
624.4978281448448
 21
1451.842180354917
 31
0.0
  0
LINE
  5
33425
330
1F
100
AcDbEntity
  8
CONTINUOUS1
 48
3.0
100
AcDbLine
 10
614.9978281448449
 20
1470.912180354911
 30
0.0
 11
614.9978281448447
 21
1451.842180354917
 31
0.0
  0
LINE
  5
33433
330
1F
100
AcDbEntity
  8
CONTINUOUS1
 48
3.0
100
AcDbLine
 10
1881.644116516374
 20
1470.912180354911
 30
0.0
 11
1881.644116516375
 21
1451.842180354917
 31
0.0
  0
LINE
  5
33434
330
1F
100
AcDbEntity
  8
CONTINUOUS1
 48
3.0
100
AcDbLine
 10
1799.144116516375
 20
1468.412180354911
 30
0.0
 11
1789.644116516375
 21
1468.412180354911
 31
0.0
  0
LINE
  5
33435
330
1F
100
AcDbEntity
  8
CONTINUOUS1
 48
3.0
100
AcDbLine
 10
1799.144116516375
 20
1470.912180354911
 30
0.0
 11
1799.144116516375
 21
1451.842180354917
 31
0.0
  0
LINE
  5
33436
330
1F
100
AcDbEntity
  8
CONTINUOUS1
 48
3.0
100
AcDbLine
 10
1789.644116516375
 20
1470.912180354911
 30
0.0
 11
1789.644116516375
 21
1451.842180354917
 31
0.0
  0
LINE
  5
33437
330
1F
100
AcDbEntity
  8
CONTINUOUS1
 48
3.0
100
AcDbLine
 10
1413.644116516375
 20
1470.91218035491
 30
0.0
 11
1413.644116516375
 21
1451.842180354917
 31
0.0
  0
LINE
  5
33438
330
1F
100
AcDbEntity
  8
CONTINUOUS1
 48
3.0
100
AcDbLine
 10
1404.144116516374
 20
1470.91218035491
 30
0.0
 11
1404.144116516375
 21
1451.842180354917
 31
0.0
  0
LINE
  5
33439
330
1F
100
AcDbEntity
  8
CONTINUOUS1
 48
3.0
100
AcDbLine
 10
1404.144116516374
 20
1468.412180354911
 30
0.0
 11
1413.644116516375
 21
1468.412180354911
 31
0.0
  0
LINE
  5
3343A
330
1F
100
AcDbEntity
  8
CONTINUOUS1
 48
3.0
100
AcDbLine
 10
1321.644116516375
 20
1470.912180354911
 30
0.0
 11
1321.644116516375
 21
1451.842180354917
 31
0.0
  0
VIEWPORT
  5
2D9DF
330
2D9D8
100
AcDbEntity
 67
     1
  8
0
 48
3.0
100
AcDbViewport
 10
5.615416399137242
 20
3.902083231708196
 30
0.0
 40
13.42559284170602
 41
8.746133096049151
 68
     1
 69
     1
 12
5.615416399137242
 22
3.902083231708196
 13
0.0
 23
0.0
 14
10.0
 24
10.0
 15
10.0
 25
10.0
 16
0.0
 26
0.0
 36
1.0
 17
0.0
 27
0.0
 37
0.0
 42
50.0
 43
0.0
 44
0.0
 45
8.746133096049151
 50
0.0
 51
0.0
 72
   100
 90
    32800
  1

281
     0
 71
     1
 74
     0
110
0.0
120
0.0
130
0.0
111
1.0
121
0.0
131
0.0
112
0.0
122
1.0
132
0.0
 79
     0
146
0.0
  0
ENDSEC
  0
SECTION
  2
OBJECTS
  0
DICTIONARY
  5
C
330
0
100
AcDbDictionary
281
     1
  3
ACAD_GROUP
350
D
  3
ACAD_LAYOUT
350
1A
  3
ACAD_MLINESTYLE
350
17
  3
ACAD_PLOTSETTINGS
350
19
  3
ACAD_PLOTSTYLENAME
350
E
  3
AcadDim
350
32CE1
  3
AcDbVariableDictionary
350
22A9
  3
DWGPROPS
350
13172
  0
DICTIONARY
  5
2E0D5
330
2
100
AcDbDictionary
280
     1
281
     1
  3
ACAD_LAYERFILTERS
360
2E26B
  3
ACAD_LAYERSTATES
360
2E0D6
  0
DICTIONARY
  5
D
102
{ACAD_REACTORS
330
C
102
}
330
C
100
AcDbDictionary
281
     1
  3
*A1
350
28C19
  3
*A10
350
2CF82
  3
*A11
350
28C2E
  3
*A12
350
28EBB
  3
*A13
350
28F0D
  3
*A14
350
29128
  3
*A2
350
2920A
  3
*A3
350
292AB
  3
*A4
350
29320
  3
*A5
350
295B7
  3
*A6
350
29808
  3
*A7
350
28C1B
  3
*A8
350
28C1C
  3
*A9
350
28C1D
  0
DICTIONARY
  5
1A
102
{ACAD_REACTORS
330
C
102
}
330
C
100
AcDbDictionary
281
     1
  3
Model
350
22
  3
ﾚｲｱｳﾄ1
350
2D9D9
  0
DICTIONARY
  5
17
102
{ACAD_REACTORS
330
C
102
}
330
C
100
AcDbDictionary
281
     1
  3
Standard
350
18
  0
DICTIONARY
  5
19
102
{ACAD_REACTORS
330
C
102
}
330
C
100
AcDbDictionary
281
     1
  0
ACDBDICTIONARYWDFLT
  5
E
102
{ACAD_REACTORS
330
C
102
}
330
C
100
AcDbDictionary
281
     1
  3
Normal
350
F
100
AcDbDictionaryWithDefault
340
F
  0
XRECORD
  5
32CE1
102
{ACAD_REACTORS
330
C
102
}
330
C
100
AcDbXrecord
280
     1
 90
   990106
  3

 60
     0
 61
     0
 62
     1
 63
     3
 64
     0
 65
     0
 66
     0
 67
     3
 68
     1
 69
     0
 70
     0
 71
     0
 72
     0
 40
0.0
170
     0
  0
DICTIONARY
  5
22A9
102
{ACAD_REACTORS
330
C
102
}
330
C
100
AcDbDictionary
281
     1
  3
DIMASSOC
350
29F7A
  3
SORTENTS
350
22AA
  0
XRECORD
  5
13172
102
{ACAD_REACTORS
330
C
102
}
330
C
100
AcDbXrecord
280
     1
  1
DWGPROPS COOKIE
  2

  3

  4

  6

  7

  8

  9

300
=
301
=
302
=
303
=
304
=
305
=
306
=
307
=
308
=
309
=
 40
12.9272396875
 41
2452142.733021111
 42
2452532.416111979
  1

 90
        0
  0
DICTIONARY
  5
2E26B
102
{ACAD_REACTORS
330
2E0D5
102
}
330
2E0D5
100
AcDbDictionary
280
     1
281
     1
  0
DICTIONARY
  5
2E0D6
102
{ACAD_REACTORS
330
2E0D5
102
}
330
2E0D5
100
AcDbDictionary
281
     1
  0
GROUP
  5
28C19
102
{ACAD_REACTORS
330
D
102
}
330
D
100
AcDbGroup
300

 70
     1
 71
     1
  0
GROUP
  5
2CF82
102
{ACAD_REACTORS
330
D
102
}
330
D
100
AcDbGroup
300

 70
     1
 71
     1
  0
GROUP
  5
28C2E
102
{ACAD_REACTORS
330
D
102
}
330
D
100
AcDbGroup
300

 70
     1
 71
     1
  0
GROUP
  5
28EBB
102
{ACAD_REACTORS
330
D
102
}
330
D
100
AcDbGroup
300

 70
     1
 71
     1
  0
GROUP
  5
28F0D
102
{ACAD_REACTORS
330
D
102
}
330
D
100
AcDbGroup
300

 70
     1
 71
     1
  0
GROUP
  5
29128
102
{ACAD_REACTORS
330
D
102
}
330
D
100
AcDbGroup
300

 70
     1
 71
     1
  0
GROUP
  5
2920A
102
{ACAD_REACTORS
330
D
102
}
330
D
100
AcDbGroup
300

 70
     1
 71
     1
  0
GROUP
  5
292AB
102
{ACAD_REACTORS
330
D
102
}
330
D
100
AcDbGroup
300

 70
     1
 71
     1
  0
GROUP
  5
29320
102
{ACAD_REACTORS
330
D
102
}
330
D
100
AcDbGroup
300

 70
     1
 71
     1
  0
GROUP
  5
295B7
102
{ACAD_REACTORS
330
D
102
}
330
D
100
AcDbGroup
300

 70
     1
 71
     1
  0
GROUP
  5
29808
102
{ACAD_REACTORS
330
D
102
}
330
D
100
AcDbGroup
300

 70
     1
 71
     1
  0
GROUP
  5
28C1B
102
{ACAD_REACTORS
330
D
102
}
330
D
100
AcDbGroup
300

 70
     1
 71
     1
  0
GROUP
  5
28C1C
102
{ACAD_REACTORS
330
D
102
}
330
D
100
AcDbGroup
300

 70
     1
 71
     1
  0
GROUP
  5
28C1D
102
{ACAD_REACTORS
330
D
102
}
330
D
100
AcDbGroup
300

 70
     1
 71
     1
  0
LAYOUT
  5
22
102
{ACAD_REACTORS
330
1A
102
}
330
1A
100
AcDbPlotSettings
  1

  2
FX DocuPrint 181 XPL2
  4
A4
  6
ver
 40
4.773083209991455
 41
4.815417766571044
 42
4.815414428710937
 43
4.7730712890625
 44
209.9733276367187
 45
296.9683227539062
 46
0.0
 47
0.0
 48
0.0
 49
0.0
140
2000.0
141
2870.0
142
1.0
143
10.0
 70
 11952
 72
     1
 73
     0
 74
     4
  7
monochrome.ctb
 75
    20
147
0.1
148
0.0
149
0.0
100
AcDbLayout
  1
Model
 70
     1
 71
     0
 10
0.0
 20
0.0
 11
12.0
 21
9.0
 12
0.0
 22
0.0
 32
0.0
 14
0.0
 24
0.0
 34
0.0
 15
0.0
 25
0.0
 35
0.0
146
0.0
 13
0.0
 23
0.0
 33
0.0
 16
1.0
 26
0.0
 36
0.0
 17
0.0
 27
1.0
 37
0.0
 76
     0
330
1F
  0
LAYOUT
  5
2D9D9
102
{ACAD_REACTORS
330
1A
102
}
330
1A
100
AcDbPlotSettings
  1

  2
EPSON LP-8000C
  4
A4
  6

 40
5.873749732971191
 41
5.873747825622558
 42
5.873748779296875
 43
5.873748779296875
 44
209.9733276367187
 45
297.0106506347656
 46
0.0
 47
0.0
 48
0.0
 49
0.0
140
0.0
141
0.0
142
1.0
143
1.0
 70
   688
 72
     0
 73
     1
 74
     5
  7

 75
    16
147
1.0
148
0.0
149
0.0
100
AcDbLayout
  1
ﾚｲｱｳﾄ1
 70
     1
 71
     1
 10
-0.2312499519408218
 20
-0.2312499894870548
 11
11.4620827502153
 21
8.035416452903447
 12
0.0
 22
0.0
 32
0.0
 14
1.12308328358207
 24
0.7804166500962629
 34
0.0
 15
10.10774955223864
 25
7.023749850866362
 35
0.0
146
0.0
 13
0.0
 23
0.0
 33
0.0
 16
1.0
 26
0.0
 36
0.0
 17
0.0
 27
1.0
 37
0.0
 76
     0
330
2D9D8
331
2D9DF
  0
MLINESTYLE
  5
18
102
{ACAD_REACTORS
330
17
102
}
330
17
100
AcDbMlineStyle
  2
STANDARD
 70
     0
  3

 62
   256
 51
90.0
 52
90.0
 71
     2
 49
0.5
 62
   256
  6
BYLAYER
 49
-0.5
 62
   256
  6
BYLAYER
  0
ACDBPLACEHOLDER
  5
F
102
{ACAD_REACTORS
330
E
102
}
330
E
  0
DICTIONARYVAR
  5
29F7A
102
{ACAD_REACTORS
330
22A9
102
}
330
22A9
100
DictionaryVariables
280
     0
  1
1
  0
DICTIONARYVAR
  5
22AA
102
{ACAD_REACTORS
330
22A9
102
}
330
22A9
100
DictionaryVariables
280
     0
  1
96
  0
ENDSEC
  0
EOF
