  0
SECTION
  2
HEADER
  9
$ACADVER
  1
AC1015
  9
$ACADMAINTVER
 70
    20
  9
$DWGCODEPAGE
  3
ANSI_932
  9
$INSBASE
 10
0.0
 20
0.0
 30
0.0
  9
$EXTMIN
 10
16468.10782889921
 20
-4572.792695119586
 30
-0.0000000000000129
  9
$EXTMAX
 10
17970.17146347912
 20
-4408.037170368706
 30
0.0000000000000023
  9
$LIMMIN
 10
0.0
 20
0.0
  9
$LIMMAX
 10
420.0
 20
297.0
  9
$ORTHOMODE
 70
     1
  9
$REGENMODE
 70
     1
  9
$FILLMODE
 70
     1
  9
$QTEXTMODE
 70
     0
  9
$MIRRTEXT
 70
     0
  9
$LTSCALE
 40
5.0
  9
$ATTMODE
 70
     1
  9
$TEXTSIZE
 40
2.5
  9
$TRACEWID
 40
1.0
  9
$TEXTSTYLE
  7
Roman
  9
$CLAYER
  8
寸法線
  9
$CELTYPE
  6
ByLayer
  9
$CECOLOR
 62
   256
  9
$CELTSCALE
 40
1.0
  9
$DISPSILH
 70
     0
  9
$DIMSCALE
 40
10.0
  9
$DIMASZ
 40
2.5
  9
$DIMEXO
 40
0.5
  9
$DIMDLI
 40
0.0
  9
$DIMRND
 40
0.0
  9
$DIMDLE
 40
0.0
  9
$DIMEXE
 40
0.5
  9
$DIMTP
 40
0.0
  9
$DIMTM
 40
0.0
  9
$DIMTXT
 40
2.5
  9
$DIMCEN
 40
0.09
  9
$DIMTSZ
 40
0.0
  9
$DIMTOL
 70
     0
  9
$DIMLIM
 70
     0
  9
$DIMTIH
 70
     0
  9
$DIMTOH
 70
     0
  9
$DIMSE1
 70
     0
  9
$DIMSE2
 70
     0
  9
$DIMTAD
 70
     1
  9
$DIMZIN
 70
     8
  9
$DIMBLK
  1
Open30
  9
$DIMASO
 70
     1
  9
$DIMSHO
 70
     1
  9
$DIMPOST
  1

  9
$DIMAPOST
  1

  9
$DIMALT
 70
     0
  9
$DIMALTD
 70
     2
  9
$DIMALTF
 40
25.4
  9
$DIMLFAC
 40
1.0
  9
$DIMTOFL
 70
     1
  9
$DIMTVP
 40
0.0
  9
$DIMTIX
 70
     0
  9
$DIMSOXD
 70
     0
  9
$DIMSAH
 70
     0
  9
$DIMBLK1
  1

  9
$DIMBLK2
  1

  9
$DIMSTYLE
  2
ROMANS1-1
  9
$DIMCLRD
 70
   256
  9
$DIMCLRE
 70
   256
  9
$DIMCLRT
 70
   256
  9
$DIMTFAC
 40
1.0
  9
$DIMGAP
 40
1.0
  9
$DIMJUST
 70
     0
  9
$DIMSD1
 70
     0
  9
$DIMSD2
 70
     0
  9
$DIMTOLJ
 70
     1
  9
$DIMTZIN
 70
     0
  9
$DIMALTZ
 70
     0
  9
$DIMALTTZ
 70
     0
  9
$DIMUPT
 70
     0
  9
$DIMDEC
 70
     1
  9
$DIMTDEC
 70
     1
  9
$DIMALTU
 70
     2
  9
$DIMALTTD
 70
     2
  9
$DIMTXSTY
  7
Roman
  9
$DIMAUNIT
 70
     0
  9
$DIMADEC
 70
     0
  9
$DIMALTRND
 40
0.0
  9
$DIMAZIN
 70
     0
  9
$DIMDSEP
 70
    46
  9
$DIMATFIT
 70
     2
  9
$DIMFRAC
 70
     0
  9
$DIMLDRBLK
  1
Open30
  9
$DIMLUNIT
 70
     2
  9
$DIMLWD
 70
    -2
  9
$DIMLWE
 70
    -2
  9
$DIMTMOVE
 70
     0
  9
$LUNITS
 70
     2
  9
$LUPREC
 70
     4
  9
$SKETCHINC
 40
1.0
  9
$FILLETRAD
 40
15.0
  9
$AUNITS
 70
     0
  9
$AUPREC
 70
     0
  9
$MENU
  1
.
  9
$ELEVATION
 40
0.0
  9
$PELEVATION
 40
0.0
  9
$THICKNESS
 40
0.0
  9
$LIMCHECK
 70
     0
  9
$CHAMFERA
 40
0.0
  9
$CHAMFERB
 40
0.0
  9
$CHAMFERC
 40
20.0
  9
$CHAMFERD
 40
0.0
  9
$SKPOLY
 70
     0
  9
$TDCREATE
 40
2452142.733021112
  9
$TDUCREATE
 40
2452142.358021112
  9
$TDUPDATE
 40
2455047.430651100
  9
$TDUUPDATE
 40
2455047.055651100
  9
$TDINDWG
 40
17.8136678241
  9
$TDUSRTIMER
 40
17.8136678241
  9
$USRTIMER
 70
     1
  9
$ANGBASE
 50
0.0
  9
$ANGDIR
 70
     0
  9
$PDMODE
 70
     3
  9
$PDSIZE
 40
0.0
  9
$PLINEWID
 40
0.0
  9
$SPLFRAME
 70
     0
  9
$SPLINETYPE
 70
     6
  9
$SPLINESEGS
 70
     8
  9
$HANDSEED
  5
4332C
  9
$SURFTAB1
 70
     6
  9
$SURFTAB2
 70
     6
  9
$SURFTYPE
 70
     6
  9
$SURFU
 70
     6
  9
$SURFV
 70
     6
  9
$UCSBASE
  2

  9
$UCSNAME
  2

  9
$UCSORG
 10
0.0
 20
0.0
 30
0.0
  9
$UCSXDIR
 10
1.0
 20
0.0
 30
0.0
  9
$UCSYDIR
 10
0.0
 20
1.0
 30
0.0
  9
$UCSORTHOREF
  2

  9
$UCSORTHOVIEW
 70
     0
  9
$UCSORGTOP
 10
0.0
 20
0.0
 30
0.0
  9
$UCSORGBOTTOM
 10
0.0
 20
0.0
 30
0.0
  9
$UCSORGLEFT
 10
0.0
 20
0.0
 30
0.0
  9
$UCSORGRIGHT
 10
0.0
 20
0.0
 30
0.0
  9
$UCSORGFRONT
 10
0.0
 20
0.0
 30
0.0
  9
$UCSORGBACK
 10
0.0
 20
0.0
 30
0.0
  9
$PUCSBASE
  2

  9
$PUCSNAME
  2

  9
$PUCSORG
 10
0.0
 20
0.0
 30
0.0
  9
$PUCSXDIR
 10
1.0
 20
0.0
 30
0.0
  9
$PUCSYDIR
 10
0.0
 20
1.0
 30
0.0
  9
$PUCSORTHOREF
  2

  9
$PUCSORTHOVIEW
 70
     0
  9
$PUCSORGTOP
 10
0.0
 20
0.0
 30
0.0
  9
$PUCSORGBOTTOM
 10
0.0
 20
0.0
 30
0.0
  9
$PUCSORGLEFT
 10
0.0
 20
0.0
 30
0.0
  9
$PUCSORGRIGHT
 10
0.0
 20
0.0
 30
0.0
  9
$PUCSORGFRONT
 10
0.0
 20
0.0
 30
0.0
  9
$PUCSORGBACK
 10
0.0
 20
0.0
 30
0.0
  9
$USERI1
 70
     0
  9
$USERI2
 70
     0
  9
$USERI3
 70
     0
  9
$USERI4
 70
     0
  9
$USERI5
 70
     0
  9
$USERR1
 40
0.0
  9
$USERR2
 40
0.0
  9
$USERR3
 40
0.0
  9
$USERR4
 40
0.0
  9
$USERR5
 40
0.0
  9
$WORLDVIEW
 70
     1
  9
$SHADEDGE
 70
     3
  9
$SHADEDIF
 70
    70
  9
$TILEMODE
 70
     1
  9
$MAXACTVP
 70
    64
  9
$PINSBASE
 10
0.0
 20
0.0
 30
0.0
  9
$PLIMCHECK
 70
     0
  9
$PEXTMIN
 10
1.12308328358207
 20
0.7804166500962629
 30
0.0
  9
$PEXTMAX
 10
10.10774955223864
 20
7.023749850866362
 30
0.0
  9
$PLIMMIN
 10
-0.2312499519408218
 20
-0.2312499894870548
  9
$PLIMMAX
 10
11.4620827502153
 20
8.035416452903447
  9
$UNITMODE
 70
     0
  9
$VISRETAIN
 70
     1
  9
$PLINEGEN
 70
     0
  9
$PSLTSCALE
 70
     1
  9
$TREEDEPTH
 70
  3020
  9
$CMLSTYLE
  2
Standard
  9
$CMLJUST
 70
     0
  9
$CMLSCALE
 40
20.0
  9
$PROXYGRAPHICS
 70
     1
  9
$MEASUREMENT
 70
     0
  9
$CELWEIGHT
370
    -1
  9
$ENDCAPS
280
     0
  9
$JOINSTYLE
280
     0
  9
$LWDISPLAY
290
     0
  9
$INSUNITS
 70
     4
  9
$HYPERLINKBASE
  1

  9
$STYLESHEET
  1
monochrome.ctb
  9
$XEDIT
290
     1
  9
$CEPSNTYPE
380
     0
  9
$PSTYLEMODE
290
     1
  9
$FINGERPRINTGUID
  2
{FDEAD578-A652-11D2-9A35-0060089B3A3F}
  9
$VERSIONGUID
  2
{0E88DCA0-8B8A-444A-949D-9E61E150C0C9}
  9
$EXTNAMES
290
     1
  9
$PSVPSCALE
 40
0.0
  9
$OLESTARTUP
290
     0
  0
ENDSEC
  0
SECTION
  2
CLASSES
  0
CLASS
  1
ACDBDICTIONARYWDFLT
  2
AcDbDictionaryWithDefault
  3
ObjectDBX Classes
 90
        0
280
     0
281
     0
  0
CLASS
  1
ACDBPLACEHOLDER
  2
AcDbPlaceHolder
  3
ObjectDBX Classes
 90
        0
280
     0
281
     0
  0
CLASS
  1
LAYOUT
  2
AcDbLayout
  3
ObjectDBX Classes
 90
        0
280
     0
281
     0
  0
CLASS
  1
DICTIONARYVAR
  2
AcDbDictionaryVar
  3
ObjectDBX Classes
 90
        0
280
     0
281
     0
  0
CLASS
  1
PLOTSETTINGS
  2
AcDbPlotSettings
  3
ObjectDBX Classes
 90
    32768
280
     0
281
     0
  0
CLASS
  1
MATERIAL
  2
AcDbMaterial
  3
ObjectDBX Classes
 90
     1153
280
     0
281
     0
  0
CLASS
  1
VISUALSTYLE
  2
AcDbVisualStyle
  3
ObjectDBX Classes
 90
     4095
280
     0
281
     0
  0
CLASS
  1
TABLESTYLE
  2
AcDbTableStyle
  3
ObjectDBX Classes
 90
     4095
280
     0
281
     0
  0
CLASS
  1
SCALE
  2
AcDbScale
  3
ObjectDBX Classes
 90
     1153
280
     0
281
     0
  0
CLASS
  1
MLEADERSTYLE
  2
AcDbMLeaderStyle
  3
ACDB_MLEADERSTYLE_CLASS
 90
     4095
280
     0
281
     0
  0
CLASS
  1
CELLSTYLEMAP
  2
AcDbCellStyleMap
  3
ObjectDBX Classes
 90
     1152
280
     0
281
     0
  0
CLASS
  1
MULTILEADER
  2
AcDbMLeader
  3
ACDB_MLEADER_CLASS
 90
     1025
280
     0
281
     1
  0
CLASS
  1
SORTENTSTABLE
  2
AcDbSortentsTable
  3
ObjectDBX Classes
 90
        0
280
     0
281
     0
  0
ENDSEC
  0
SECTION
  2
TABLES
  0
TABLE
  2
VPORT
  5
8
102
{ACAD_XDICTIONARY
360
3779A
102
}
330
0
100
AcDbSymbolTable
 70
     1
  0
VPORT
  5
413B5
330
8
100
AcDbSymbolTableRecord
100
AcDbViewportTableRecord
  2
*Active
 70
     0
 10
0.0
 20
0.0
 11
1.0
 21
1.0
 12
17219.13964618917
 22
-4490.414932744147
 13
0.0
 23
0.0
 14
10.0
 24
10.0
 15
10.0
 25
10.0
 16
0.0
 26
0.0
 36
1.0
 17
0.0
 27
0.0
 37
0.0
 40
1560.527553223144
 41
0.9689174705251875
 42
50.0
 43
0.0
 44
0.0
 50
0.0
 51
0.0
 71
     0
 72
  1000
 73
     1
 74
     2
 75
     0
 76
     0
 77
     0
 78
     0
281
     0
 65
     1
110
0.0
120
0.0
130
0.0
111
1.0
121
0.0
131
0.0
112
0.0
122
1.0
132
0.0
 79
     0
146
0.0
  0
ENDTAB
  0
TABLE
  2
LTYPE
  5
5
330
0
100
AcDbSymbolTable
 70
     7
  0
LTYPE
  5
14
330
5
100
AcDbSymbolTableRecord
100
AcDbLinetypeTableRecord
  2
ByBlock
 70
     0
  3

 72
    65
 73
     0
 40
0.0
  0
LTYPE
  5
15
330
5
100
AcDbSymbolTableRecord
100
AcDbLinetypeTableRecord
  2
ByLayer
 70
     0
  3

 72
    65
 73
     0
 40
0.0
  0
LTYPE
  5
16
330
5
100
AcDbSymbolTableRecord
100
AcDbLinetypeTableRecord
  2
Continuous
 70
     0
  3
Solid line
 72
    65
 73
     0
 40
0.0
  0
LTYPE
  5
50
330
5
100
AcDbSymbolTableRecord
100
AcDbLinetypeTableRecord
  2
CENTER
 70
     0
  3
Center ____ _ ____ _ ____ _ ____ _ ____ _ ____
 72
    65
 73
     4
 40
2.0
 49
1.25
 74
     0
 49
-0.25
 74
     0
 49
0.25
 74
     0
 49
-0.25
 74
     0
  0
LTYPE
  5
22EA7
330
5
100
AcDbSymbolTableRecord
100
AcDbLinetypeTableRecord
  2
DASHED
 70
     0
  3
Dashed __ __ __ __ __ __ __ __ __ __ __ __ __ _
 72
    65
 73
     2
 40
0.75
 49
0.5
 74
     0
 49
-0.25
 74
     0
  0
LTYPE
  5
299F0
330
5
100
AcDbSymbolTableRecord
100
AcDbLinetypeTableRecord
  2
PHANTOM
 70
     0
  3
Phantom ______  __  __  ______  __  __  ______
 72
    65
 73
     6
 40
2.5
 49
1.25
 74
     0
 49
-0.25
 74
     0
 49
0.25
 74
     0
 49
-0.25
 74
     0
 49
0.25
 74
     0
 49
-0.25
 74
     0
  0
LTYPE
  5
37C65
330
5
100
AcDbSymbolTableRecord
100
AcDbLinetypeTableRecord
  2
DASH_CENTER
 70
     0
  3
Dash_Center
 72
    65
 73
     4
 40
36.0
 49
24.0
 74
     0
 49
-3.0
 74
     0
 49
6.0
 74
     0
 49
-3.0
 74
     0
  0
LTYPE
  5
3AE21
330
5
100
AcDbSymbolTableRecord
100
AcDbLinetypeTableRecord
  2
DOTTED
 70
     0
  3
Dotted
 72
    65
 73
     2
 40
3.5
 49
0.5
 74
     0
 49
-3.0
 74
     0
  0
ENDTAB
  0
TABLE
  2
LAYER
  5
2
102
{ACAD_XDICTIONARY
360
2E0D5
102
}
330
0
100
AcDbSymbolTable
 70
    19
  0
LAYER
  5
10
102
{ACAD_XDICTIONARY
360
32EF9
102
}
330
2
100
AcDbSymbolTableRecord
100
AcDbLayerTableRecord
  2
0
 70
     0
 62
     6
  6
Continuous
370
    -3
390
F
  0
LAYER
  5
51
330
2
100
AcDbSymbolTableRecord
100
AcDbLayerTableRecord
  2
Defpoints
 70
     0
 62
     6
  6
Continuous
290
     0
370
    -3
390
F
  0
LAYER
  5
53
102
{ACAD_XDICTIONARY
360
32EFB
102
}
330
2
100
AcDbSymbolTableRecord
100
AcDbLayerTableRecord
  2
実線1
 70
     0
 62
     7
  6
Continuous
370
    25
390
F
  0
LAYER
  5
4ED
102
{ACAD_XDICTIONARY
360
32EFD
102
}
330
2
100
AcDbSymbolTableRecord
100
AcDbLayerTableRecord
  2
図枠
 70
     0
 62
   251
  6
Continuous
370
    25
390
F
  0
LAYER
  5
1795
102
{ACAD_XDICTIONARY
360
32EFF
102
}
330
2
100
AcDbSymbolTableRecord
100
AcDbLayerTableRecord
  2
寸法線
 70
     0
 62
     4
  6
Continuous
370
    15
390
F
  0
LAYER
  5
1797
102
{ACAD_XDICTIONARY
360
32F01
102
}
330
2
100
AcDbSymbolTableRecord
100
AcDbLayerTableRecord
  2
中心線
 70
     0
 62
     2
  6
CENTER
370
     9
390
F
  0
LAYER
  5
16A75
102
{ACAD_XDICTIONARY
360
32F03
102
}
330
2
100
AcDbSymbolTableRecord
100
AcDbLayerTableRecord
  2
破線
 70
     0
 62
     3
  6
DASHED
370
     9
390
F
  0
LAYER
  5
22FC4
102
{ACAD_XDICTIONARY
360
32F05
102
}
330
2
100
AcDbSymbolTableRecord
100
AcDbLayerTableRecord
  2
細線(注記、ハッチング)
 70
     0
 62
     2
  6
Continuous
370
     9
390
F
  0
LAYER
  5
299F1
102
{ACAD_XDICTIONARY
360
32F07
102
}
330
2
100
AcDbSymbolTableRecord
100
AcDbLayerTableRecord
  2
二点鎖線
 70
     0
 62
     5
  6
PHANTOM
370
     9
390
F
  0
LAYER
  5
2E26C
102
{ACAD_XDICTIONARY
360
32F09
102
}
330
2
100
AcDbSymbolTableRecord
100
AcDbLayerTableRecord
  2
1
 70
     0
 62
    30
  6
Continuous
370
    25
390
F
  0
LAYER
  5
33223
102
{ACAD_XDICTIONARY
360
33224
102
}
330
2
100
AcDbSymbolTableRecord
100
AcDbLayerTableRecord
  2
細線
 70
     0
 62
     2
  6
Continuous
370
     9
390
F
  0
LAYER
  5
373E4
102
{ACAD_XDICTIONARY
360
373E5
102
}
330
2
100
AcDbSymbolTableRecord
100
AcDbLayerTableRecord
  2
ハッチング
 70
     0
 62
     2
  6
Continuous
370
     9
390
F
  0
LAYER
  5
373E6
102
{ACAD_XDICTIONARY
360
373E7
102
}
330
2
100
AcDbSymbolTableRecord
100
AcDbLayerTableRecord
  2
DIM
 70
     0
 62
     4
  6
Continuous
370
    15
390
F
  0
LAYER
  5
37816
102
{ACAD_XDICTIONARY
360
37817
102
}
330
2
100
AcDbSymbolTableRecord
100
AcDbLayerTableRecord
  2
CENTER
 70
     0
 62
     2
  6
CENTER
370
    -3
390
F
  0
LAYER
  5
37818
102
{ACAD_XDICTIONARY
360
37819
102
}
330
2
100
AcDbSymbolTableRecord
100
AcDbLayerTableRecord
  2
マット
 70
     0
 62
     6
  6
Continuous
370
    -3
390
F
  0
LAYER
  5
37978
102
{ACAD_XDICTIONARY
360
37979
102
}
330
2
100
AcDbSymbolTableRecord
100
AcDbLayerTableRecord
  2
WAKU
 70
     0
 62
   251
  6
Continuous
370
    25
390
F
  0
LAYER
  5
38B21
102
{ACAD_XDICTIONARY
360
38B22
102
}
330
2
100
AcDbSymbolTableRecord
100
AcDbLayerTableRecord
  2
CONTINUOUS1
 70
     0
 62
     7
  6
Continuous
370
    -3
390
F
  0
LAYER
  5
3D4D2
102
{ACAD_XDICTIONARY
360
3D4D3
102
}
330
2
100
AcDbSymbolTableRecord
100
AcDbLayerTableRecord
  2
改訂
 70
     0
 62
    30
  6
Continuous
370
    25
390
F
  0
LAYER
  5
432CE
330
2
100
AcDbSymbolTableRecord
100
AcDbLayerTableRecord
  2
CONTINUOUS
 70
     0
 62
     7
  6
Continuous
370
    -3
390
F
  0
ENDTAB
  0
TABLE
  2
STYLE
  5
3
330
0
100
AcDbSymbolTable
 70
     8
  0
STYLE
  5
11
330
3
100
AcDbSymbolTableRecord
100
AcDbTextStyleTableRecord
  2
Standard
 70
     0
 40
0.0
 41
1.0
 50
0.0
 71
     0
 42
2.5
  3
txt
  4

  0
STYLE
  5
56
330
3
100
AcDbSymbolTableRecord
100
AcDbTextStyleTableRecord
  2
Roman
 70
     0
 40
0.0
 41
0.8
 50
0.0
 71
     0
 42
2.5
  3
monotxt.shx
  4
extfont.shx
  0
STYLE
  5
33135
330
3
100
AcDbSymbolTableRecord
100
AcDbTextStyleTableRecord
  2

 70
     1
 40
0.0
 41
1.0
 50
0.0
 71
     0
 42
2.0
  3
ltypeshp.shx
  4

  0
STYLE
  5
38325
330
3
100
AcDbSymbolTableRecord
100
AcDbTextStyleTableRecord
  2
CONVERTER_1
 70
     0
 40
0.0
 41
0.9
 50
0.0
 71
     0
 42
0.0
  3
txt.shx
  4

  0
STYLE
  5
38B94
330
3
100
AcDbSymbolTableRecord
100
AcDbTextStyleTableRecord
  2
CONVERTER_2
 70
     0
 40
0.0
 41
0.7513389
 50
0.0
 71
     0
 42
0.0
  3
txt.shx
  4

  0
ENDTAB
  0
TABLE
  2
VIEW
  5
6
330
0
100
AcDbSymbolTable
 70
     1
  0
VIEW
  5
915E
330
6
100
AcDbSymbolTableRecord
100
AcDbViewTableRecord
  2
ver
 70
     0
 40
7045.613907487581
 10
-4790.815363240545
 20
3611.376516816377
 41
5375.226361339651
 11
0.0
 21
0.0
 31
1.0
 12
0.0
 22
0.0
 32
0.0
 42
50.0
 43
0.0
 44
0.0
 50
0.0
 71
     0
281
     0
 72
     1
110
0.0
120
0.0
130
0.0
111
1.0
121
0.0
131
0.0
112
0.0
122
1.0
132
0.0
 79
     0
146
0.0
  0
ENDTAB
  0
TABLE
  2
UCS
  5
7
330
0
100
AcDbSymbolTable
 70
     2
  0
UCS
  5
19FE
330
7
100
AcDbSymbolTableRecord
100
AcDbUCSTableRecord
  2
migi
 70
     0
 10
0.0
 20
0.0
 30
0.0
 11
0.7071067811865476
 21
0.7071067811865475
 31
0.0
 12
-0.7071067811865475
 22
0.7071067811865476
 32
0.0
 79
     0
146
0.0
  0
UCS
  5
1A00
330
7
100
AcDbSymbolTableRecord
100
AcDbUCSTableRecord
  2
hidari
 70
     0
 10
-64.13422370724777
 20
64.13422370724777
 30
0.0
 11
0.7071067811865476
 21
-0.7071067811865476
 31
0.0
 12
0.7071067811865476
 22
0.7071067811865476
 32
0.0
 79
     0
146
0.0
  0
ENDTAB
  0
TABLE
  2
APPID
  5
9
330
0
100
AcDbSymbolTable
 70
     9
  0
APPID
  5
12
330
9
100
AcDbSymbolTableRecord
100
AcDbRegAppTableRecord
  2
ACAD
 70
     0
  0
APPID
  5
32EF4
330
9
100
AcDbSymbolTableRecord
100
AcDbRegAppTableRecord
  2
ACAD_MLEADERVER
 70
     0
  0
APPID
  5
32FD5
330
9
100
AcDbSymbolTableRecord
100
AcDbRegAppTableRecord
  2
ACAD_DSTYLE_DIMJAG
 70
     0
  0
APPID
  5
32FD6
330
9
100
AcDbSymbolTableRecord
100
AcDbRegAppTableRecord
  2
ACAD_DSTYLE_DIMTALN
 70
     0
  0
APPID
  5
33137
330
9
100
AcDbSymbolTableRecord
100
AcDbRegAppTableRecord
  2
ACAD_DSTYLE_DIMBREAK
 70
     0
  0
APPID
  5
331E1
330
9
100
AcDbSymbolTableRecord
100
AcDbRegAppTableRecord
  2
ACAD_EXEMPT_FROM_CAD_STANDARDS
 70
     0
  0
APPID
  5
331E4
330
9
100
AcDbSymbolTableRecord
100
AcDbRegAppTableRecord
  2
AcadAnnoPO
 70
     0
  0
APPID
  5
33225
330
9
100
AcDbSymbolTableRecord
100
AcDbRegAppTableRecord
  2
ACAD_PSEXT
 70
     0
  0
APPID
  5
366F2
330
9
100
AcDbSymbolTableRecord
100
AcDbRegAppTableRecord
  2
ACAD_DSTYLE_DIMRADIAL_EXTENSION
 70
     0
  0
ENDTAB
  0
TABLE
  2
DIMSTYLE
  5
A
330
0
100
AcDbSymbolTable
 70
    19
100
AcDbDimStyleTable
 71
     5
340
5A
340
331C1
340
331BE
340
331BA
340
331C0
  0
DIMSTYLE
105
5A
330
A
100
AcDbSymbolTableRecord
100
AcDbDimStyleTableRecord
  2
ROMANS1-1
 70
     0
 40
10.0
 41
2.5
 42
0.5
 43
0.0
 44
0.5
 73
     0
 74
     0
 77
     1
 78
     8
140
2.5
147
1.0
172
     1
176
   256
177
   256
178
   256
271
     1
272
     1
289
     2
340
56
341
FB25
342
FB25
1001
ACAD_DSTYLE_DIMJAG
1070
   388
1040
1.5
1001
ACAD_DSTYLE_DIMTALN
1070
   392
1070
     0
  0
DIMSTYLE
105
33138
330
A
100
AcDbSymbolTableRecord
100
AcDbDimStyleTableRecord
  2
ROMANS1-2
 70
     0
 40
2.0
 41
2.5
 42
0.5
 43
0.0
 44
0.5
 73
     0
 74
     0
 77
     1
 78
     8
140
2.5
147
1.0
172
     1
176
   256
177
   256
178
   256
271
     1
272
     1
289
     2
340
56
341
FB25
342
FB25
1001
ACAD_DSTYLE_DIMBREAK
1070
   391
1040
0.125
1001
ACAD_DSTYLE_DIMJAG
1070
   388
1040
1.5
1001
ACAD_DSTYLE_DIMTALN
1070
   392
1070
     0
  0
DIMSTYLE
105
331BA
330
A
100
AcDbSymbolTableRecord
100
AcDbDimStyleTableRecord
  2
ROMANS1-4
 70
     0
 40
4.0
 41
2.5
 42
0.5
 43
0.0
 44
0.5
 73
     0
 74
     0
 77
     1
 78
     8
140
2.5
147
1.0
172
     1
176
   256
177
   256
178
   256
271
     1
272
     1
289
     2
340
56
341
FB25
342
FB25
1001
ACAD_DSTYLE_DIMBREAK
1070
   391
1040
0.125
1001
ACAD_DSTYLE_DIMJAG
1070
   388
1040
1.5
1001
ACAD_DSTYLE_DIMTALN
1070
   392
1070
     0
  0
DIMSTYLE
105
331BB
330
A
100
AcDbSymbolTableRecord
100
AcDbDimStyleTableRecord
  2
ROMANS1-5
 70
     0
 40
5.0
 41
2.5
 42
0.5
 43
0.0
 44
0.5
 73
     0
 74
     0
 77
     1
 78
     8
140
2.5
147
1.0
172
     1
176
   256
177
   256
178
   256
271
     1
272
     1
289
     2
340
56
341
FB25
342
FB25
1001
ACAD_DSTYLE_DIMBREAK
1070
   391
1040
0.125
1001
ACAD_DSTYLE_DIMJAG
1070
   388
1040
1.5
1001
ACAD_DSTYLE_DIMTALN
1070
   392
1070
     0
  0
DIMSTYLE
105
331BC
330
A
100
AcDbSymbolTableRecord
100
AcDbDimStyleTableRecord
  2
ROMANS1-6
 70
     0
 40
6.0
 41
2.5
 42
0.5
 43
0.0
 44
0.5
 73
     0
 74
     0
 77
     1
 78
     8
140
2.5
147
1.0
172
     1
176
   256
177
   256
178
   256
271
     1
272
     1
289
     2
340
56
341
FB25
342
FB25
1001
ACAD_DSTYLE_DIMBREAK
1070
   391
1040
0.125
1001
ACAD_DSTYLE_DIMJAG
1070
   388
1040
1.5
1001
ACAD_DSTYLE_DIMTALN
1070
   392
1070
     0
  0
DIMSTYLE
105
331BE
330
A
100
AcDbSymbolTableRecord
100
AcDbDimStyleTableRecord
  2
ROMANS1-8
 70
     0
 40
8.0
 41
2.5
 42
0.5
 43
0.0
 44
0.5
 73
     0
 74
     0
 77
     1
 78
     8
140
2.5
147
1.0
172
     1
176
   256
177
   256
178
   256
271
     1
272
     1
289
     2
340
56
341
FB25
342
FB25
1001
ACAD_DSTYLE_DIMBREAK
1070
   391
1040
0.125
1001
ACAD_DSTYLE_DIMJAG
1070
   388
1040
1.5
1001
ACAD_DSTYLE_DIMTALN
1070
   392
1070
     0
  0
DIMSTYLE
105
331C0
330
A
100
AcDbSymbolTableRecord
100
AcDbDimStyleTableRecord
  2
ROMANS1-10
 70
     0
 40
10.0
 41
2.5
 42
0.5
 43
0.0
 44
0.5
 73
     0
 74
     0
 77
     1
 78
     8
140
2.5
147
1.0
172
     1
176
   256
177
   256
178
   256
271
     1
272
     1
289
     2
340
56
341
FB25
342
FB25
1001
ACAD_DSTYLE_DIMBREAK
1070
   391
1040
0.125
1001
ACAD_DSTYLE_DIMJAG
1070
   388
1040
1.5
1001
ACAD_DSTYLE_DIMTALN
1070
   392
1070
     0
  0
DIMSTYLE
105
331C1
330
A
100
AcDbSymbolTableRecord
100
AcDbDimStyleTableRecord
  2
ROMANS2-1
 70
     0
 40
0.5
 41
2.5
 42
0.5
 43
0.0
 44
0.5
 73
     0
 74
     0
 77
     1
 78
     8
140
2.5
147
1.0
172
     1
176
   256
177
   256
178
   256
271
     1
272
     1
289
     2
340
56
341
FB25
342
FB25
1001
ACAD_DSTYLE_DIMBREAK
1070
   391
1040
0.125
1001
ACAD_DSTYLE_DIMJAG
1070
   388
1040
1.5
1001
ACAD_DSTYLE_DIMTALN
1070
   392
1070
     0
  0
DIMSTYLE
105
36744
330
A
100
AcDbSymbolTableRecord
100
AcDbDimStyleTableRecord
  2
ROMANS
 70
     0
 41
4.0
 42
0.5
 43
0.0
 44
0.5
 73
     0
 74
     0
 77
     1
 78
     8
140
4.0
147
1.0
172
     1
176
     2
177
     2
178
     2
271
     1
272
     1
289
     2
340
56
341
4A
342
4A
  0
DIMSTYLE
105
36745
330
A
100
AcDbSymbolTableRecord
100
AcDbDimStyleTableRecord
  2
STANDARD
 70
     0
340
11
  0
DIMSTYLE
105
373E8
330
A
100
AcDbSymbolTableRecord
100
AcDbDimStyleTableRecord
  2
コピー ～ ROMANS1-3
 70
     0
 41
2.0
 42
1.0
 43
0.0
 44
1.0
 48
0.000000001
 73
     0
 74
     0
 77
     1
 78
     8
 79
     2
140
2.0
144
5.0
146
0.7
147
1.0
172
     1
176
   256
177
   256
178
   256
179
     1
271
     1
272
     1
283
     0
284
     8
288
     1
340
56
341
FB25
342
FB25
1001
ACAD_DSTYLE_DIMBREAK
1070
   391
1040
0.125
1001
ACAD_DSTYLE_DIMJAG
1070
   388
1040
1.5
1001
ACAD_DSTYLE_DIMTALN
1070
   392
1070
     0
  0
DIMSTYLE
105
373E9
330
A
100
AcDbSymbolTableRecord
100
AcDbDimStyleTableRecord
  2
コピー(2) ～ ROMANS1-2
 70
     0
 41
2.0
 42
1.0
 43
0.0
 44
1.0
 48
0.000000001
 73
     0
 74
     0
 77
     1
 78
     8
 79
     2
140
2.0
144
4.0
146
0.7
147
1.0
172
     1
176
   256
177
   256
178
   256
179
     1
271
     1
272
     1
283
     0
284
     8
288
     1
340
56
341
FB25
342
FB25
1001
ACAD_DSTYLE_DIMBREAK
1070
   391
1040
0.125
1001
ACAD_DSTYLE_DIMJAG
1070
   388
1040
1.5
1001
ACAD_DSTYLE_DIMTALN
1070
   392
1070
     0
  0
DIMSTYLE
105
376B0
330
A
100
AcDbSymbolTableRecord
100
AcDbDimStyleTableRecord
  2
ME10_DIM_1
 70
     0
 41
15.0
 42
5.0
 44
7.5
 73
     0
 74
     0
 77
     1
 78
     8
140
15.0
147
0.625
173
     1
176
     2
177
     2
178
     7
271
     3
340
11
341
FB25
343
FB25
344
FB25
  0
DIMSTYLE
105
376B1
330
A
100
AcDbSymbolTableRecord
100
AcDbDimStyleTableRecord
  2
ROMANS1-5-2
 70
     0
 41
10.0
 42
1.0
 43
0.0
 44
1.0
 48
0.000000001
 73
     0
 74
     0
 77
     1
 78
     8
 79
     2
140
10.0
144
0.2
146
0.7
147
5.0
172
     1
176
   256
177
   256
178
   256
179
     1
271
     1
272
     1
283
     0
284
     8
340
56
341
FB25
342
FB25
  0
DIMSTYLE
105
3924A
330
A
100
AcDbSymbolTableRecord
100
AcDbDimStyleTableRecord
  2
ISO-25
 70
     0
 41
2.5
 42
0.625
 43
3.75
 44
1.25
 73
     0
 74
     0
 77
     1
 78
     8
140
2.5
141
2.5
143
0.0393700787
147
0.625
171
     3
172
     1
271
     2
272
     2
274
     3
278
    44
283
     0
284
     8
340
11
  0
ENDTAB
  0
TABLE
  2
BLOCK_RECORD
  5
1
330
0
100
AcDbSymbolTable
 70
   106
  0
BLOCK_RECORD
  5
1F
102
{ACAD_XDICTIONARY
360
366E8
102
}
330
1
100
AcDbSymbolTableRecord
100
AcDbBlockTableRecord
  2
*Model_Space
340
22
  0
BLOCK_RECORD
  5
2D9D8
330
1
100
AcDbSymbolTableRecord
100
AcDbBlockTableRecord
  2
*Paper_Space
340
2D9D9
  0
BLOCK_RECORD
  5
4A
330
1
100
AcDbSymbolTableRecord
100
AcDbBlockTableRecord
  2
_Open
340
0
  0
BLOCK_RECORD
  5
FB25
330
1
100
AcDbSymbolTableRecord
100
AcDbBlockTableRecord
  2
_Open30
340
0
102
{BLKREFS
331
40B3F
331
40B40
331
40B52
331
40B53
331
40DF1
331
40DF2
331
40EA0
331
40EA1
331
40EA9
331
40EAA
331
40EBB
331
40EBC
331
40FA2
331
40FA3
331
40FAB
331
40FAC
331
40FB4
331
40FB5
331
40FDA
331
40FDB
331
41103
331
41104
331
4110C
331
4110D
331
41130
331
41131
331
4117F
331
41180
331
4119B
331
4119C
331
411A4
331
411A5
331
411AD
331
411AE
331
411B6
331
411B7
331
411BF
331
411C0
331
411CA
331
411CB
331
411D3
331
411D4
331
4135D
331
4135E
331
4136F
331
41370
331
41378
331
41379
331
413DA
331
413DB
331
413E6
331
413E7
331
413F2
331
413F3
331
413FE
331
413FF
331
4140A
331
4140B
331
41416
331
41417
331
41422
331
41423
331
4142E
331
4142F
331
4143A
331
4143B
331
41448
331
41449
331
41454
331
41455
331
41460
331
41461
331
4146E
331
4146F
331
4147A
331
4147B
331
41486
331
41487
331
41492
331
41493
331
4149E
331
4149F
331
414AA
331
414AB
331
414B6
331
414B7
331
414C4
331
414C5
331
414D0
331
414D1
331
414DC
331
414DD
331
414E8
331
414E9
331
414F4
331
414F5
331
41500
331
41501
331
4150C
331
4150D
331
41518
331
41519
331
41524
331
41525
331
41530
331
41531
331
4153C
331
4153D
331
41548
331
41549
331
41554
331
41555
331
41560
331
41561
331
4156C
331
4156D
331
42EBA
331
42EBB
331
42EC3
331
42EC4
331
42ECC
331
42ECD
331
42ED5
331
42ED6
331
42EDE
331
42EDF
331
42EE7
331
42EE8
331
42EF0
331
42EF1
331
42EF9
331
42EFA
331
42F02
331
42F03
331
42F0D
331
42F0E
331
42F16
331
42F17
331
42F1F
331
42F20
331
42F2A
331
42F2B
331
42F33
331
42F34
331
42F3C
331
42F3D
331
42F45
331
42F46
331
42F4E
331
42F4F
331
42F57
331
42F58
331
42F60
331
42F61
331
42F6B
331
42F6C
331
42F74
331
42F75
331
42F7D
331
42F7E
331
42F86
331
42F87
331
42F8F
331
42F90
331
42F98
331
42F99
331
42FA1
331
42FA2
331
42FAA
331
42FAB
331
42FB3
331
42FB4
331
42FBC
331
42FBD
331
42FC5
331
42FC6
331
42FCE
331
42FCF
331
42FD7
331
42FD8
331
42FE0
331
42FE1
331
42FE9
331
42FEA
331
43141
331
43142
102
}
  0
BLOCK_RECORD
  5
33213
330
1
100
AcDbSymbolTableRecord
100
AcDbBlockTableRecord
  2
_DotSmall
340
0
  0
BLOCK_RECORD
  5
40501
330
1
100
AcDbSymbolTableRecord
100
AcDbBlockTableRecord
  2
*D3
340
0
  0
BLOCK_RECORD
  5
4050D
330
1
100
AcDbSymbolTableRecord
100
AcDbBlockTableRecord
  2
*D4
340
0
  0
BLOCK_RECORD
  5
40519
330
1
100
AcDbSymbolTableRecord
100
AcDbBlockTableRecord
  2
*D5
340
0
  0
BLOCK_RECORD
  5
40525
330
1
100
AcDbSymbolTableRecord
100
AcDbBlockTableRecord
  2
*D6
340
0
  0
BLOCK_RECORD
  5
40531
330
1
100
AcDbSymbolTableRecord
100
AcDbBlockTableRecord
  2
*D7
340
0
  0
BLOCK_RECORD
  5
4053D
330
1
100
AcDbSymbolTableRecord
100
AcDbBlockTableRecord
  2
*D8
340
0
  0
BLOCK_RECORD
  5
40549
330
1
100
AcDbSymbolTableRecord
100
AcDbBlockTableRecord
  2
*D9
340
0
  0
BLOCK_RECORD
  5
40579
330
1
100
AcDbSymbolTableRecord
100
AcDbBlockTableRecord
  2
*D10
340
0
  0
BLOCK_RECORD
  5
40585
330
1
100
AcDbSymbolTableRecord
100
AcDbBlockTableRecord
  2
*D11
340
0
  0
BLOCK_RECORD
  5
40591
330
1
100
AcDbSymbolTableRecord
100
AcDbBlockTableRecord
  2
*D12
340
0
  0
BLOCK_RECORD
  5
4059F
330
1
100
AcDbSymbolTableRecord
100
AcDbBlockTableRecord
  2
*D13
340
0
  0
BLOCK_RECORD
  5
4066D
330
1
100
AcDbSymbolTableRecord
100
AcDbBlockTableRecord
  2
*D14
340
0
  0
BLOCK_RECORD
  5
40693
330
1
100
AcDbSymbolTableRecord
100
AcDbBlockTableRecord
  2
*D15
340
0
  0
BLOCK_RECORD
  5
406A1
330
1
100
AcDbSymbolTableRecord
100
AcDbBlockTableRecord
  2
*D16
340
0
  0
BLOCK_RECORD
  5
406B9
330
1
100
AcDbSymbolTableRecord
100
AcDbBlockTableRecord
  2
*D17
340
0
  0
BLOCK_RECORD
  5
406C5
330
1
100
AcDbSymbolTableRecord
100
AcDbBlockTableRecord
  2
*D18
340
0
  0
BLOCK_RECORD
  5
406D1
330
1
100
AcDbSymbolTableRecord
100
AcDbBlockTableRecord
  2
*D19
340
0
  0
BLOCK_RECORD
  5
40894
330
1
100
AcDbSymbolTableRecord
100
AcDbBlockTableRecord
  2
*D20
340
0
  0
BLOCK_RECORD
  5
408AA
330
1
100
AcDbSymbolTableRecord
100
AcDbBlockTableRecord
  2
*D21
340
0
  0
BLOCK_RECORD
  5
408C0
330
1
100
AcDbSymbolTableRecord
100
AcDbBlockTableRecord
  2
*D22
340
0
  0
BLOCK_RECORD
  5
40B0F
330
1
100
AcDbSymbolTableRecord
100
AcDbBlockTableRecord
  2
*D23
340
0
  0
BLOCK_RECORD
  5
40B1B
330
1
100
AcDbSymbolTableRecord
100
AcDbBlockTableRecord
  2
*D24
340
0
  0
BLOCK_RECORD
  5
40B27
330
1
100
AcDbSymbolTableRecord
100
AcDbBlockTableRecord
  2
*D25
340
0
  0
BLOCK_RECORD
  5
41345
330
1
100
AcDbSymbolTableRecord
100
AcDbBlockTableRecord
  2
*D26
340
0
  0
BLOCK_RECORD
  5
42D19
330
1
100
AcDbSymbolTableRecord
100
AcDbBlockTableRecord
  2
*D61
340
0
  0
BLOCK_RECORD
  5
42D25
330
1
100
AcDbSymbolTableRecord
100
AcDbBlockTableRecord
  2
*D62
340
0
  0
BLOCK_RECORD
  5
42D31
330
1
100
AcDbSymbolTableRecord
100
AcDbBlockTableRecord
  2
*D63
340
0
  0
BLOCK_RECORD
  5
42D3D
330
1
100
AcDbSymbolTableRecord
100
AcDbBlockTableRecord
  2
*D64
340
0
  0
BLOCK_RECORD
  5
42D49
330
1
100
AcDbSymbolTableRecord
100
AcDbBlockTableRecord
  2
*D65
340
0
  0
BLOCK_RECORD
  5
42D55
330
1
100
AcDbSymbolTableRecord
100
AcDbBlockTableRecord
  2
*D66
340
0
  0
BLOCK_RECORD
  5
42D61
330
1
100
AcDbSymbolTableRecord
100
AcDbBlockTableRecord
  2
*D67
340
0
  0
BLOCK_RECORD
  5
42D6D
330
1
100
AcDbSymbolTableRecord
100
AcDbBlockTableRecord
  2
*D68
340
0
  0
BLOCK_RECORD
  5
42D79
330
1
100
AcDbSymbolTableRecord
100
AcDbBlockTableRecord
  2
*D69
340
0
  0
BLOCK_RECORD
  5
42D85
330
1
100
AcDbSymbolTableRecord
100
AcDbBlockTableRecord
  2
*D70
340
0
  0
BLOCK_RECORD
  5
42D93
330
1
100
AcDbSymbolTableRecord
100
AcDbBlockTableRecord
  2
*D71
340
0
  0
BLOCK_RECORD
  5
42D9F
330
1
100
AcDbSymbolTableRecord
100
AcDbBlockTableRecord
  2
*D72
340
0
  0
BLOCK_RECORD
  5
42DAB
330
1
100
AcDbSymbolTableRecord
100
AcDbBlockTableRecord
  2
*D73
340
0
  0
BLOCK_RECORD
  5
42DB9
330
1
100
AcDbSymbolTableRecord
100
AcDbBlockTableRecord
  2
*D74
340
0
  0
BLOCK_RECORD
  5
42DC5
330
1
100
AcDbSymbolTableRecord
100
AcDbBlockTableRecord
  2
*D75
340
0
  0
BLOCK_RECORD
  5
42DD1
330
1
100
AcDbSymbolTableRecord
100
AcDbBlockTableRecord
  2
*D76
340
0
  0
BLOCK_RECORD
  5
42DDD
330
1
100
AcDbSymbolTableRecord
100
AcDbBlockTableRecord
  2
*D77
340
0
  0
BLOCK_RECORD
  5
42DE9
330
1
100
AcDbSymbolTableRecord
100
AcDbBlockTableRecord
  2
*D78
340
0
  0
BLOCK_RECORD
  5
42DF5
330
1
100
AcDbSymbolTableRecord
100
AcDbBlockTableRecord
  2
*D79
340
0
  0
BLOCK_RECORD
  5
42E01
330
1
100
AcDbSymbolTableRecord
100
AcDbBlockTableRecord
  2
*D80
340
0
  0
BLOCK_RECORD
  5
42E0F
330
1
100
AcDbSymbolTableRecord
100
AcDbBlockTableRecord
  2
*D81
340
0
  0
BLOCK_RECORD
  5
42E1B
330
1
100
AcDbSymbolTableRecord
100
AcDbBlockTableRecord
  2
*D82
340
0
  0
BLOCK_RECORD
  5
42E27
330
1
100
AcDbSymbolTableRecord
100
AcDbBlockTableRecord
  2
*D83
340
0
  0
BLOCK_RECORD
  5
42E33
330
1
100
AcDbSymbolTableRecord
100
AcDbBlockTableRecord
  2
*D84
340
0
  0
BLOCK_RECORD
  5
42E3F
330
1
100
AcDbSymbolTableRecord
100
AcDbBlockTableRecord
  2
*D85
340
0
  0
BLOCK_RECORD
  5
42E4B
330
1
100
AcDbSymbolTableRecord
100
AcDbBlockTableRecord
  2
*D86
340
0
  0
BLOCK_RECORD
  5
42E57
330
1
100
AcDbSymbolTableRecord
100
AcDbBlockTableRecord
  2
*D87
340
0
  0
BLOCK_RECORD
  5
42E63
330
1
100
AcDbSymbolTableRecord
100
AcDbBlockTableRecord
  2
*D88
340
0
  0
BLOCK_RECORD
  5
42E6F
330
1
100
AcDbSymbolTableRecord
100
AcDbBlockTableRecord
  2
*D89
340
0
  0
BLOCK_RECORD
  5
42E7B
330
1
100
AcDbSymbolTableRecord
100
AcDbBlockTableRecord
  2
*D90
340
0
  0
BLOCK_RECORD
  5
42E87
330
1
100
AcDbSymbolTableRecord
100
AcDbBlockTableRecord
  2
*D91
340
0
  0
BLOCK_RECORD
  5
42E93
330
1
100
AcDbSymbolTableRecord
100
AcDbBlockTableRecord
  2
*D92
340
0
  0
BLOCK_RECORD
  5
42E9F
330
1
100
AcDbSymbolTableRecord
100
AcDbBlockTableRecord
  2
*D93
340
0
  0
BLOCK_RECORD
  5
42EAB
330
1
100
AcDbSymbolTableRecord
100
AcDbBlockTableRecord
  2
*D94
340
0
  0
BLOCK_RECORD
  5
43139
330
1
100
AcDbSymbolTableRecord
100
AcDbBlockTableRecord
  2
*D98
340
0
  0
BLOCK_RECORD
  5
431C9
330
1
100
AcDbSymbolTableRecord
100
AcDbBlockTableRecord
  2
SW_CENTERMARKSYMBOL_0
340
0
102
{BLKREFS
331
43226
102
}
  0
ENDTAB
  0
ENDSEC
  0
SECTION
  2
BLOCKS
  0
BLOCK
  5
20
330
1F
100
AcDbEntity
  8
0
100
AcDbBlockBegin
  2
*Model_Space
 70
     0
 10
0.0
 20
0.0
 30
0.0
  3
*Model_Space
  1

  0
ENDBLK
  5
21
330
1F
100
AcDbEntity
  8
0
100
AcDbBlockEnd
  0
BLOCK
  5
2D9DA
330
2D9D8
100
AcDbEntity
 67
     1
  8
0
100
AcDbBlockBegin
  2
*Paper_Space
 70
     0
 10
0.0
 20
0.0
 30
0.0
  3
*Paper_Space
  1

  0
ENDBLK
  5
2D9DB
330
2D9D8
100
AcDbEntity
 67
     1
  8
0
100
AcDbBlockEnd
  0
BLOCK
  5
4E
330
4A
100
AcDbEntity
  8
0
100
AcDbBlockBegin
  2
_Open
 70
     0
 10
0.0
 20
0.0
 30
0.0
  3
_Open
  1

  0
LINE
  5
4B
330
4A
100
AcDbEntity
  8
0
  6
Continuous
 62
     0
370
    -2
100
AcDbLine
 10
-1.0
 20
0.1666666666666666
 30
0.0
 11
0.0
 21
0.0
 31
0.0
  0
LINE
  5
4C
330
4A
100
AcDbEntity
  8
0
  6
Continuous
 62
     0
370
    -2
100
AcDbLine
 10
-1.0
 20
-0.1666666666666666
 30
0.0
 11
0.0
 21
0.0
 31
0.0
  0
LINE
  5
4D
330
4A
100
AcDbEntity
  8
0
  6
Continuous
 62
     0
370
    -2
100
AcDbLine
 10
0.0
 20
0.0
 30
0.0
 11
-1.0
 21
0.0
 31
0.0
  0
ENDBLK
  5
4F
330
4A
100
AcDbEntity
  8
0
100
AcDbBlockEnd
  0
BLOCK
  5
FB29
330
FB25
100
AcDbEntity
  8
0
100
AcDbBlockBegin
  2
_Open30
 70
     0
 10
0.0
 20
0.0
 30
0.0
  3
_Open30
  1

  0
LINE
  5
FB26
330
FB25
100
AcDbEntity
  8
0
 62
     0
370
    -2
100
AcDbLine
 10
-1.0
 20
0.26794919
 30
0.0
 11
0.0
 21
0.0
 31
0.0
  0
LINE
  5
FB27
330
FB25
100
AcDbEntity
  8
0
 62
     0
370
    -2
100
AcDbLine
 10
0.0
 20
0.0
 30
0.0
 11
-1.0
 21
-0.26794919
 31
0.0
  0
LINE
  5
FB28
330
FB25
100
AcDbEntity
  8
0
 62
     0
370
    -2
100
AcDbLine
 10
0.0
 20
0.0
 30
0.0
 11
-1.0
 21
0.0
 31
0.0
  0
ENDBLK
  5
FB2A
330
FB25
100
AcDbEntity
  8
0
100
AcDbBlockEnd
  0
BLOCK
  5
33214
330
33213
100
AcDbEntity
  8
0
 48
5.0
100
AcDbBlockBegin
  2
_DotSmall
 70
     0
 10
0.0
 20
0.0
 30
0.0
  3
_DotSmall
  1

  0
LWPOLYLINE
  5
33215
330
33213
100
AcDbEntity
  8
0
  6
ByBlock
 62
     0
100
AcDbPolyline
 90
        2
 70
     1
 43
0.5
 10
-0.0625
 20
0.0
 42
1.0
 10
0.0625
 20
0.0
 42
1.0
  0
ENDBLK
  5
33216
330
33213
100
AcDbEntity
  8
0
 48
5.0
100
AcDbBlockEnd
  0
BLOCK
  5
40502
330
40501
100
AcDbEntity
  8
0
100
AcDbBlockBegin
  2
*D3
 70
     1
 10
0.0
 20
0.0
 30
0.0
  3
*D3
  1

  0
LINE
  5
411A1
330
40501
100
AcDbEntity
  8
寸法線
370
    -2
100
AcDbLine
 10
11268.35622074534
 20
2835.73549914708
 30
0.0
 11
11268.35622074534
 21
3008.701046009501
 31
0.0
  0
LINE
  5
411A2
330
40501
100
AcDbEntity
  8
寸法線
370
    -2
100
AcDbLine
 10
11568.35622074534
 20
2835.73549914708
 30
0.0
 11
11568.35622074534
 21
3008.701046009501
 31
0.0
  0
LINE
  5
411A3
330
40501
100
AcDbEntity
  8
寸法線
370
    -2
100
AcDbLine
 10
11293.35622074534
 20
3003.701046009501
 30
0.0
 11
11543.35622074534
 21
3003.701046009501
 31
0.0
  0
INSERT
  5
411A4
330
40501
100
AcDbEntity
  8
寸法線
370
    -2
100
AcDbBlockReference
  2
_Open30
 10
11268.35622074534
 20
3003.701046009501
 30
0.0
 41
25.0
 42
25.0
 43
25.0
 50
180.0
  0
INSERT
  5
411A5
330
40501
100
AcDbEntity
  8
寸法線
370
    -2
100
AcDbBlockReference
  2
_Open30
 10
11568.35622074534
 20
3003.701046009501
 30
0.0
 41
25.0
 42
25.0
 43
25.0
  0
MTEXT
  5
411A6
330
40501
100
AcDbEntity
  8
寸法線
100
AcDbMText
 10
11418.35622074534
 20
3026.201046009501
 30
0.0
 40
25.0
 41
0.0
 71
     5
 72
     1
  1
\A1;300
  7
Roman
 73
     1
 44
1.0
1001
ACAD
1000
MTEXTBEGIN
1070
    73
1070
     1
1070
    44
1040
1.0
1070
    74
1070
     0
1000
MTEXTEND
  0
POINT
  5
411A7
330
40501
100
AcDbEntity
  8
Defpoints
 62
     0
100
AcDbPoint
 10
11268.35622074534
 20
2830.73549914708
 30
0.0
  0
POINT
  5
411A8
330
40501
100
AcDbEntity
  8
Defpoints
 62
     0
100
AcDbPoint
 10
11568.35622074534
 20
2830.73549914708
 30
0.0
  0
POINT
  5
411A9
330
40501
100
AcDbEntity
  8
Defpoints
 62
     0
100
AcDbPoint
 10
11568.35622074534
 20
3003.701046009501
 30
0.0
  0
ENDBLK
  5
40503
330
40501
100
AcDbEntity
  8
0
100
AcDbBlockEnd
  0
BLOCK
  5
4050E
330
4050D
100
AcDbEntity
  8
0
100
AcDbBlockBegin
  2
*D4
 70
     1
 10
0.0
 20
0.0
 30
0.0
  3
*D4
  1

  0
LINE
  5
411AA
330
4050D
100
AcDbEntity
  8
寸法線
370
    -2
100
AcDbLine
 10
11218.35622074534
 20
2835.73549914708
 30
0.0
 11
11218.35622074534
 21
3062.826170148641
 31
0.0
  0
LINE
  5
411AB
330
4050D
100
AcDbEntity
  8
寸法線
370
    -2
100
AcDbLine
 10
11618.35622074534
 20
2835.73549914708
 30
0.0
 11
11618.35622074534
 21
3062.826170148641
 31
0.0
  0
LINE
  5
411AC
330
4050D
100
AcDbEntity
  8
寸法線
370
    -2
100
AcDbLine
 10
11243.35622074534
 20
3057.826170148641
 30
0.0
 11
11593.35622074534
 21
3057.826170148641
 31
0.0
  0
INSERT
  5
411AD
330
4050D
100
AcDbEntity
  8
寸法線
370
    -2
100
AcDbBlockReference
  2
_Open30
 10
11218.35622074534
 20
3057.826170148641
 30
0.0
 41
25.0
 42
25.0
 43
25.0
 50
180.0
  0
INSERT
  5
411AE
330
4050D
100
AcDbEntity
  8
寸法線
370
    -2
100
AcDbBlockReference
  2
_Open30
 10
11618.35622074534
 20
3057.826170148641
 30
0.0
 41
25.0
 42
25.0
 43
25.0
  0
MTEXT
  5
411AF
330
4050D
100
AcDbEntity
  8
寸法線
100
AcDbMText
 10
11418.35622074534
 20
3080.326170148641
 30
0.0
 40
25.0
 41
0.0
 71
     5
 72
     1
  1
\A1;400
  7
Roman
 73
     1
 44
1.0
1001
ACAD
1000
MTEXTBEGIN
1070
    73
1070
     1
1070
    44
1040
1.0
1070
    74
1070
     0
1000
MTEXTEND
  0
POINT
  5
411B0
330
4050D
100
AcDbEntity
  8
Defpoints
 62
     0
100
AcDbPoint
 10
11218.35622074534
 20
2830.73549914708
 30
0.0
  0
POINT
  5
411B1
330
4050D
100
AcDbEntity
  8
Defpoints
 62
     0
100
AcDbPoint
 10
11618.35622074534
 20
2830.73549914708
 30
0.0
  0
POINT
  5
411B2
330
4050D
100
AcDbEntity
  8
Defpoints
 62
     0
100
AcDbPoint
 10
11618.35622074534
 20
3057.826170148641
 30
0.0
  0
ENDBLK
  5
4050F
330
4050D
100
AcDbEntity
  8
0
100
AcDbBlockEnd
  0
BLOCK
  5
4051A
330
40519
100
AcDbEntity
  8
0
100
AcDbBlockBegin
  2
*D5
 70
     1
 10
0.0
 20
0.0
 30
0.0
  3
*D5
  1

  0
LINE
  5
411B3
330
40519
100
AcDbEntity
  8
寸法線
370
    -2
100
AcDbLine
 10
11218.35622074534
 20
2835.73549914708
 30
0.0
 11
11218.35622074534
 21
3062.826170148641
 31
0.0
  0
LINE
  5
411B4
330
40519
100
AcDbEntity
  8
寸法線
370
    -2
100
AcDbLine
 10
10668.35622074534
 20
2809.513781822192
 30
0.0
 11
10668.35622074534
 21
3062.826170148641
 31
0.0
  0
LINE
  5
411B5
330
40519
100
AcDbEntity
  8
寸法線
370
    -2
100
AcDbLine
 10
11193.35622074534
 20
3057.826170148641
 30
0.0
 11
10693.35622074534
 21
3057.826170148641
 31
0.0
  0
INSERT
  5
411B6
330
40519
100
AcDbEntity
  8
寸法線
370
    -2
100
AcDbBlockReference
  2
_Open30
 10
11218.35622074534
 20
3057.826170148641
 30
0.0
 41
25.0
 42
25.0
 43
25.0
  0
INSERT
  5
411B7
330
40519
100
AcDbEntity
  8
寸法線
370
    -2
100
AcDbBlockReference
  2
_Open30
 10
10668.35622074534
 20
3057.826170148641
 30
0.0
 41
25.0
 42
25.0
 43
25.0
 50
180.0
  0
MTEXT
  5
411B8
330
40519
100
AcDbEntity
  8
寸法線
100
AcDbMText
 10
10943.35622074535
 20
3080.326170148641
 30
0.0
 40
25.0
 41
0.0
 71
     5
 72
     1
  1
\A1;(550)
  7
Roman
 73
     1
 44
1.0
1001
ACAD
1000
MTEXTBEGIN
1070
    73
1070
     1
1070
    44
1040
1.0
1070
    74
1070
     0
1000
MTEXTEND
  0
POINT
  5
411B9
330
40519
100
AcDbEntity
  8
Defpoints
 62
     0
100
AcDbPoint
 10
11218.35622074534
 20
2830.73549914708
 30
0.0
  0
POINT
  5
411BA
330
40519
100
AcDbEntity
  8
Defpoints
 62
     0
100
AcDbPoint
 10
10668.35622074534
 20
2804.513781822192
 30
0.0
  0
POINT
  5
411BB
330
40519
100
AcDbEntity
  8
Defpoints
 62
     0
100
AcDbPoint
 10
10668.35622074534
 20
3057.826170148641
 30
0.0
  0
ENDBLK
  5
4051B
330
40519
100
AcDbEntity
  8
0
100
AcDbBlockEnd
  0
BLOCK
  5
40526
330
40525
100
AcDbEntity
  8
0
100
AcDbBlockBegin
  2
*D6
 70
     1
 10
0.0
 20
0.0
 30
0.0
  3
*D6
  1

  0
LINE
  5
411BC
330
40525
100
AcDbEntity
  8
寸法線
370
    -2
100
AcDbLine
 10
11618.35622074534
 20
2835.73549914708
 30
0.0
 11
11618.35622074534
 21
3062.826170148641
 31
0.0
  0
LINE
  5
411BD
330
40525
100
AcDbEntity
  8
寸法線
370
    -2
100
AcDbLine
 10
12168.35622074534
 20
2802.738397186735
 30
0.0
 11
12168.35622074534
 21
3062.826170148641
 31
0.0
  0
LINE
  5
411BE
330
40525
100
AcDbEntity
  8
寸法線
370
    -2
100
AcDbLine
 10
11643.35622074534
 20
3057.826170148641
 30
0.0
 11
12143.35622074534
 21
3057.826170148641
 31
0.0
  0
INSERT
  5
411BF
330
40525
100
AcDbEntity
  8
寸法線
370
    -2
100
AcDbBlockReference
  2
_Open30
 10
11618.35622074534
 20
3057.826170148641
 30
0.0
 41
25.0
 42
25.0
 43
25.0
 50
180.0
  0
INSERT
  5
411C0
330
40525
100
AcDbEntity
  8
寸法線
370
    -2
100
AcDbBlockReference
  2
_Open30
 10
12168.35622074534
 20
3057.826170148641
 30
0.0
 41
25.0
 42
25.0
 43
25.0
  0
MTEXT
  5
411C1
330
40525
100
AcDbEntity
  8
寸法線
100
AcDbMText
 10
11893.35622074534
 20
3080.326170148641
 30
0.0
 40
25.0
 41
0.0
 71
     5
 72
     1
  1
\A1;(550)
  7
Roman
 73
     1
 44
1.0
1001
ACAD
1000
MTEXTBEGIN
1070
    73
1070
     1
1070
    44
1040
1.0
1070
    74
1070
     0
1000
MTEXTEND
  0
POINT
  5
411C2
330
40525
100
AcDbEntity
  8
Defpoints
 62
     0
100
AcDbPoint
 10
11618.35622074534
 20
2830.73549914708
 30
0.0
  0
POINT
  5
411C3
330
40525
100
AcDbEntity
  8
Defpoints
 62
     0
100
AcDbPoint
 10
12168.35622074534
 20
2797.738397186735
 30
0.0
  0
POINT
  5
411C4
330
40525
100
AcDbEntity
  8
Defpoints
 62
     0
100
AcDbPoint
 10
12168.35622074534
 20
3057.826170148641
 30
0.0
  0
ENDBLK
  5
40527
330
40525
100
AcDbEntity
  8
0
100
AcDbBlockEnd
  0
BLOCK
  5
40532
330
40531
100
AcDbEntity
  8
0
100
AcDbBlockBegin
  2
*D7
 70
     1
 10
0.0
 20
0.0
 30
0.0
  3
*D7
  1

  0
LINE
  5
4135A
330
40531
100
AcDbEntity
  8
寸法線
370
    -2
100
AcDbLine
 10
12162.14224735862
 20
2812.030759703559
 30
0.0
 11
12246.14844591722
 21
2812.030759703559
 31
0.0
  0
LINE
  5
4135B
330
40531
100
AcDbEntity
  8
寸法線
370
    -2
100
AcDbLine
 10
12161.79618688698
 20
2215.030759703561
 30
0.0
 11
12246.14844591722
 21
2215.030759703561
 31
0.0
  0
LINE
  5
4135C
330
40531
100
AcDbEntity
  8
寸法線
370
    -2
100
AcDbLine
 10
12241.14844591722
 20
2787.030759703559
 30
0.0
 11
12241.14844591722
 21
2240.030759703561
 31
0.0
  0
INSERT
  5
4135D
330
40531
100
AcDbEntity
  8
寸法線
370
    -2
100
AcDbBlockReference
  2
_Open30
 10
12241.14844591722
 20
2812.030759703559
 30
0.0
 41
25.0
 42
25.0
 43
25.0
 50
90.0
  0
INSERT
  5
4135E
330
40531
100
AcDbEntity
  8
寸法線
370
    -2
100
AcDbBlockReference
  2
_Open30
 10
12241.14844591722
 20
2215.030759703561
 30
0.0
 41
25.0
 42
25.0
 43
25.0
 50
270.0
  0
MTEXT
  5
4135F
330
40531
100
AcDbEntity
  8
寸法線
100
AcDbMText
 10
12218.64844591722
 20
2513.530759703562
 30
0.0
 40
25.0
 41
0.0
 71
     5
 72
     1
  1
\A1;600
  7
Roman
 11
0.0000000000000001
 21
1.0
 31
0.0
 73
     1
 44
1.0
1001
ACAD
1000
MTEXTBEGIN
1070
    73
1070
     1
1070
    44
1040
1.0
1070
    74
1070
     0
1000
MTEXTEND
  0
POINT
  5
41360
330
40531
100
AcDbEntity
  8
Defpoints
 62
     0
100
AcDbPoint
 10
12157.14224735862
 20
2812.030759703559
 30
0.0
  0
POINT
  5
41361
330
40531
100
AcDbEntity
  8
Defpoints
 62
     0
100
AcDbPoint
 10
12156.79618688698
 20
2215.030759703561
 30
0.0
  0
POINT
  5
41362
330
40531
100
AcDbEntity
  8
Defpoints
 62
     0
100
AcDbPoint
 10
12241.14844591722
 20
2215.030759703561
 30
0.0
  0
ENDBLK
  5
40533
330
40531
100
AcDbEntity
  8
0
100
AcDbBlockEnd
  0
BLOCK
  5
4053E
330
4053D
100
AcDbEntity
  8
0
100
AcDbBlockBegin
  2
*D8
 70
     1
 10
0.0
 20
0.0
 30
0.0
  3
*D8
  1

  0
LINE
  5
4112D
330
4053D
100
AcDbEntity
  8
寸法線
370
    -2
100
AcDbLine
 10
11822.45619421412
 20
1446.3714353386
 30
0.0
 11
11822.45619421412
 21
1266.658372029813
 31
0.0
  0
LINE
  5
4112E
330
4053D
100
AcDbEntity
  8
寸法線
370
    -2
100
AcDbLine
 10
11014.2562223029
 20
1446.3714353386
 30
0.0
 11
11014.2562223029
 21
1266.658372029813
 31
0.0
  0
LINE
  5
4112F
330
4053D
100
AcDbEntity
  8
寸法線
370
    -2
100
AcDbLine
 10
11797.45619421412
 20
1271.658372029813
 30
0.0
 11
11039.2562223029
 21
1271.658372029813
 31
0.0
  0
INSERT
  5
41130
330
4053D
100
AcDbEntity
  8
寸法線
370
    -2
100
AcDbBlockReference
  2
_Open30
 10
11822.45619421412
 20
1271.658372029813
 30
0.0
 41
25.0
 42
25.0
 43
25.0
  0
INSERT
  5
41131
330
4053D
100
AcDbEntity
  8
寸法線
370
    -2
100
AcDbBlockReference
  2
_Open30
 10
11014.2562223029
 20
1271.658372029813
 30
0.0
 41
25.0
 42
25.0
 43
25.0
 50
180.0
  0
MTEXT
  5
41132
330
4053D
100
AcDbEntity
  8
寸法線
100
AcDbMText
 10
11418.35620825851
 20
1294.158372029813
 30
0.0
 40
25.0
 41
0.0
 71
     5
 72
     1
  1
\A1;808
  7
Roman
 73
     1
 44
1.0
1001
ACAD
1000
MTEXTBEGIN
1070
    73
1070
     1
1070
    44
1040
1.0
1070
    74
1070
     0
1000
MTEXTEND
  0
POINT
  5
41133
330
4053D
100
AcDbEntity
  8
Defpoints
 62
     0
100
AcDbPoint
 10
11822.45619421412
 20
1451.3714353386
 30
0.0
  0
POINT
  5
41134
330
4053D
100
AcDbEntity
  8
Defpoints
 62
     0
100
AcDbPoint
 10
11014.2562223029
 20
1451.3714353386
 30
0.0
  0
POINT
  5
41135
330
4053D
100
AcDbEntity
  8
Defpoints
 62
     0
100
AcDbPoint
 10
11014.2562223029
 20
1271.658372029813
 30
0.0
  0
ENDBLK
  5
4053F
330
4053D
100
AcDbEntity
  8
0
100
AcDbBlockEnd
  0
BLOCK
  5
4054A
330
40549
100
AcDbEntity
  8
0
100
AcDbBlockBegin
  2
*D9
 70
     1
 10
0.0
 20
0.0
 30
0.0
  3
*D9
  1

  0
LINE
  5
41100
330
40549
100
AcDbEntity
  8
寸法線
370
    -2
100
AcDbLine
 10
13088.87649172347
 20
1409.704147550291
 30
0.0
 11
13088.87649172347
 21
1219.931144244452
 31
0.0
  0
LINE
  5
41101
330
40549
100
AcDbEntity
  8
寸法線
370
    -2
100
AcDbLine
 10
12437.87175995378
 20
1890.067070164582
 30
0.0
 11
12437.87175995378
 21
1219.931144244452
 31
0.0
  0
LINE
  5
41102
330
40549
100
AcDbEntity
  8
寸法線
370
    -2
100
AcDbLine
 10
13063.87649172347
 20
1224.931144244452
 30
0.0
 11
12462.87175995378
 21
1224.931144244452
 31
0.0
  0
INSERT
  5
41103
330
40549
100
AcDbEntity
  8
寸法線
370
    -2
100
AcDbBlockReference
  2
_Open30
 10
13088.87649172347
 20
1224.931144244452
 30
0.0
 41
25.0
 42
25.0
 43
25.0
  0
INSERT
  5
41104
330
40549
100
AcDbEntity
  8
寸法線
370
    -2
100
AcDbBlockReference
  2
_Open30
 10
12437.87175995378
 20
1224.931144244452
 30
0.0
 41
25.0
 42
25.0
 43
25.0
 50
180.0
  0
MTEXT
  5
41105
330
40549
100
AcDbEntity
  8
寸法線
100
AcDbMText
 10
12763.37412583862
 20
1247.431144244452
 30
0.0
 40
25.0
 41
0.0
 71
     5
 72
     1
  1
\A1;650
  7
Roman
 73
     1
 44
1.0
1001
ACAD
1000
MTEXTBEGIN
1070
    73
1070
     1
1070
    44
1040
1.0
1070
    74
1070
     0
1000
MTEXTEND
  0
POINT
  5
41106
330
40549
100
AcDbEntity
  8
Defpoints
 62
     0
100
AcDbPoint
 10
13088.87649172347
 20
1414.704147550291
 30
0.0
  0
POINT
  5
41107
330
40549
100
AcDbEntity
  8
Defpoints
 62
     0
100
AcDbPoint
 10
12437.87175995378
 20
1895.067070164582
 30
0.0
  0
POINT
  5
41108
330
40549
100
AcDbEntity
  8
Defpoints
 62
     0
100
AcDbPoint
 10
12437.87175995378
 20
1224.931144244452
 30
0.0
  0
ENDBLK
  5
4054B
330
40549
100
AcDbEntity
  8
0
100
AcDbBlockEnd
  0
BLOCK
  5
4057A
330
40579
100
AcDbEntity
  8
0
100
AcDbBlockBegin
  2
*D10
 70
     1
 10
0.0
 20
0.0
 30
0.0
  3
*D10
  1

  0
LINE
  5
40E9D
330
40579
100
AcDbEntity
  8
寸法線
370
    -2
100
AcDbLine
 10
13125.226347018
 20
2356.136411149653
 30
0.0
 11
13125.226347018
 21
2241.992925307132
 31
0.0
  0
LINE
  5
40E9E
330
40579
100
AcDbEntity
  8
寸法線
370
    -2
100
AcDbLine
 10
13467.89301368467
 20
2358.803068807188
 30
0.0
 11
13467.89301368467
 21
2241.992925307132
 31
0.0
  0
LINE
  5
40E9F
330
40579
100
AcDbEntity
  8
寸法線
370
    -2
100
AcDbLine
 10
13150.226347018
 20
2246.992925307131
 30
0.0
 11
13442.89301368467
 21
2246.992925307131
 31
0.0
  0
INSERT
  5
40EA0
330
40579
100
AcDbEntity
  8
寸法線
370
    -2
100
AcDbBlockReference
  2
_Open30
 10
13125.226347018
 20
2246.992925307131
 30
0.0
 41
25.0
 42
25.0
 43
25.0
 50
180.0
  0
INSERT
  5
40EA1
330
40579
100
AcDbEntity
  8
寸法線
370
    -2
100
AcDbBlockReference
  2
_Open30
 10
13467.89301368467
 20
2246.992925307131
 30
0.0
 41
25.0
 42
25.0
 43
25.0
  0
MTEXT
  5
40EA2
330
40579
100
AcDbEntity
  8
寸法線
100
AcDbMText
 10
13296.55968035133
 20
2269.492925307131
 30
0.0
 40
25.0
 41
0.0
 71
     5
 72
     1
  1
\A1;515
  7
Roman
 73
     1
 44
1.0
1001
ACAD
1000
MTEXTBEGIN
1070
    73
1070
     1
1070
    44
1040
1.0
1070
    74
1070
     0
1000
MTEXTEND
  0
POINT
  5
40EA3
330
40579
100
AcDbEntity
  8
Defpoints
 62
     0
100
AcDbPoint
 10
13125.226347018
 20
2361.136411149653
 30
0.0
  0
POINT
  5
40EA4
330
40579
100
AcDbEntity
  8
Defpoints
 62
     0
100
AcDbPoint
 10
13467.89301368467
 20
2363.803068807188
 30
0.0
  0
POINT
  5
40EA5
330
40579
100
AcDbEntity
  8
Defpoints
 62
     0
100
AcDbPoint
 10
13467.89301368467
 20
2246.992925307131
 30
0.0
  0
ENDBLK
  5
4057B
330
40579
100
AcDbEntity
  8
0
100
AcDbBlockEnd
  0
BLOCK
  5
40586
330
40585
100
AcDbEntity
  8
0
100
AcDbBlockBegin
  2
*D11
 70
     1
 10
0.0
 20
0.0
 30
0.0
  3
*D11
  1

  0
LINE
  5
40FD7
330
40585
100
AcDbEntity
  8
寸法線
370
    -2
100
AcDbLine
 10
12172.75487622401
 20
1914.904138815661
 30
0.0
 11
12307.33698063229
 21
1914.904138815661
 31
0.0
  0
LINE
  5
40FD8
330
40585
100
AcDbEntity
  8
寸法線
370
    -2
100
AcDbLine
 10
12237.84660065122
 20
1414.704147550291
 30
0.0
 11
12307.33698063229
 21
1414.704147550291
 31
0.0
  0
LINE
  5
40FD9
330
40585
100
AcDbEntity
  8
寸法線
370
    -2
100
AcDbLine
 10
12302.3369806323
 20
1889.90413881566
 30
0.0
 11
12302.3369806323
 21
1439.704147550291
 31
0.0
  0
INSERT
  5
40FDA
330
40585
100
AcDbEntity
  8
寸法線
370
    -2
100
AcDbBlockReference
  2
_Open30
 10
12302.3369806323
 20
1914.904138815661
 30
0.0
 41
25.0
 42
25.0
 43
25.0
 50
90.0
  0
INSERT
  5
40FDB
330
40585
100
AcDbEntity
  8
寸法線
370
    -2
100
AcDbBlockReference
  2
_Open30
 10
12302.3369806323
 20
1414.704147550291
 30
0.0
 41
25.0
 42
25.0
 43
25.0
 50
270.0
  0
MTEXT
  5
40FDC
330
40585
100
AcDbEntity
  8
寸法線
100
AcDbMText
 10
12279.83698063229
 20
1664.804143182978
 30
0.0
 40
25.0
 41
0.0
 71
     5
 72
     1
  1
\A1;500
  7
Roman
 11
0.0000000000000001
 21
1.0
 31
0.0
 73
     1
 44
1.0
1001
ACAD
1000
MTEXTBEGIN
1070
    73
1070
     1
1070
    44
1040
1.0
1070
    74
1070
     0
1000
MTEXTEND
  0
POINT
  5
40FDD
330
40585
100
AcDbEntity
  8
Defpoints
 62
     0
100
AcDbPoint
 10
12167.75487622401
 20
1914.904138815661
 30
0.0
  0
POINT
  5
40FDE
330
40585
100
AcDbEntity
  8
Defpoints
 62
     0
100
AcDbPoint
 10
12232.84660065123
 20
1414.704147550291
 30
0.0
  0
POINT
  5
40FDF
330
40585
100
AcDbEntity
  8
Defpoints
 62
     0
100
AcDbPoint
 10
12302.3369806323
 20
1414.704147550291
 30
0.0
  0
ENDBLK
  5
40587
330
40585
100
AcDbEntity
  8
0
100
AcDbBlockEnd
  0
BLOCK
  5
40592
330
40591
100
AcDbEntity
  8
0
100
AcDbBlockBegin
  2
*D12
 70
     1
 10
0.0
 20
0.0
 30
0.0
  3
*D12
  1

  0
LINE
  5
40F9D
330
40591
100
AcDbEntity
  8
寸法線
370
    -2
100
AcDbLine
 10
12167.82682735688
 20
1862.404138815661
 30
0.0
 11
12235.19156255246
 21
1862.404138815661
 31
0.0
  0
LINE
  5
40F9E
330
40591
100
AcDbEntity
  8
寸法線
370
    -2
100
AcDbLine
 10
12172.14785060417
 20
1914.904138815661
 30
0.0
 11
12235.19156255246
 21
1914.904138815661
 31
0.0
  0
LINE
  5
40F9F
330
40591
100
AcDbEntity
  8
寸法線
370
    -2
100
AcDbLine
 10
12230.19156255246
 20
1939.904138815661
 30
0.0
 11
12230.19156255246
 21
1964.904138815661
 31
0.0
  0
LINE
  5
40FA0
330
40591
100
AcDbEntity
  8
寸法線
370
    -2
100
AcDbLine
 10
12230.19156255246
 20
1837.404138815661
 30
0.0
 11
12230.19156255246
 21
1739.070805482327
 31
0.0
  0
LINE
  5
40FA1
330
40591
100
AcDbEntity
  8
寸法線
370
    -2
100
AcDbLine
 10
12230.19156255246
 20
1914.904138815661
 30
0.0
 11
12230.19156255246
 21
1862.404138815661
 31
0.0
  0
INSERT
  5
40FA2
330
40591
100
AcDbEntity
  8
寸法線
370
    -2
100
AcDbBlockReference
  2
_Open30
 10
12230.19156255246
 20
1914.904138815661
 30
0.0
 41
25.0
 42
25.0
 43
25.0
 50
270.0
  0
INSERT
  5
40FA3
330
40591
100
AcDbEntity
  8
寸法線
370
    -2
100
AcDbBlockReference
  2
_Open30
 10
12230.19156255246
 20
1862.404138815661
 30
0.0
 41
25.0
 42
25.0
 43
25.0
 50
90.0
  0
MTEXT
  5
40FA4
330
40591
100
AcDbEntity
  8
寸法線
100
AcDbMText
 10
12207.69156255246
 20
1765.737472148995
 30
0.0
 40
25.0
 41
0.0
 71
     5
 72
     1
  1
\A1;55
  7
Roman
 11
0.0000000000000001
 21
1.0
 31
0.0
 73
     1
 44
1.0
1001
ACAD
1000
MTEXTBEGIN
1070
    73
1070
     1
1070
    44
1040
1.0
1070
    74
1070
     0
1000
MTEXTEND
  0
POINT
  5
40FA5
330
40591
100
AcDbEntity
  8
Defpoints
 62
     0
100
AcDbPoint
 10
12162.82682735688
 20
1862.404138815661
 30
0.0
  0
POINT
  5
40FA6
330
40591
100
AcDbEntity
  8
Defpoints
 62
     0
100
AcDbPoint
 10
12167.14785060417
 20
1914.904138815661
 30
0.0
  0
POINT
  5
40FA7
330
40591
100
AcDbEntity
  8
Defpoints
 62
     0
100
AcDbPoint
 10
12230.19156255246
 20
1914.904138815661
 30
0.0
  0
ENDBLK
  5
40593
330
40591
100
AcDbEntity
  8
0
100
AcDbBlockEnd
  0
BLOCK
  5
405A0
330
4059F
100
AcDbEntity
  8
0
100
AcDbBlockBegin
  2
*D13
 70
     1
 10
0.0
 20
0.0
 30
0.0
  3
*D13
  1

  0
LINE
  5
40EB8
330
4059F
100
AcDbEntity
  8
寸法線
370
    -2
100
AcDbLine
 10
14024.52760510288
 20
2358.803068807188
 30
0.0
 11
14024.52760510288
 21
2224.674993370963
 31
0.0
  0
LINE
  5
40EB9
330
4059F
100
AcDbEntity
  8
寸法線
370
    -2
100
AcDbLine
 10
14131.19215218335
 20
2358.803068807188
 30
0.0
 11
14131.19215218335
 21
2224.674993370963
 31
0.0
  0
LINE
  5
40EBA
330
4059F
100
AcDbEntity
  8
寸法線
370
    -2
100
AcDbLine
 10
14049.52760510288
 20
2229.674993370963
 30
0.0
 11
14106.19215218335
 21
2229.674993370963
 31
0.0
  0
INSERT
  5
40EBB
330
4059F
100
AcDbEntity
  8
寸法線
370
    -2
100
AcDbBlockReference
  2
_Open30
 10
14024.52760510288
 20
2229.674993370963
 30
0.0
 41
25.0
 42
25.0
 43
25.0
 50
180.0
  0
INSERT
  5
40EBC
330
4059F
100
AcDbEntity
  8
寸法線
370
    -2
100
AcDbBlockReference
  2
_Open30
 10
14131.19215218335
 20
2229.674993370963
 30
0.0
 41
25.0
 42
25.0
 43
25.0
  0
MTEXT
  5
40EBD
330
4059F
100
AcDbEntity
  8
寸法線
100
AcDbMText
 10
14077.85987864311
 20
2252.174993370964
 30
0.0
 40
25.0
 41
0.0
 71
     5
 72
     1
  1
\A1;160
  7
Roman
 73
     1
 44
1.0
1001
ACAD
1000
MTEXTBEGIN
1070
    73
1070
     1
1070
    44
1040
1.0
1070
    74
1070
     0
1000
MTEXTEND
  0
POINT
  5
40EBE
330
4059F
100
AcDbEntity
  8
Defpoints
 62
     0
100
AcDbPoint
 10
14024.52760510288
 20
2363.803068807188
 30
0.0
  0
POINT
  5
40EBF
330
4059F
100
AcDbEntity
  8
Defpoints
 62
     0
100
AcDbPoint
 10
14131.19215218335
 20
2363.803068807188
 30
0.0
  0
POINT
  5
40EC0
330
4059F
100
AcDbEntity
  8
Defpoints
 62
     0
100
AcDbPoint
 10
14131.19215218335
 20
2229.674993370963
 30
0.0
  0
ENDBLK
  5
405A1
330
4059F
100
AcDbEntity
  8
0
100
AcDbBlockEnd
  0
BLOCK
  5
4066E
330
4066D
100
AcDbEntity
  8
0
100
AcDbBlockBegin
  2
*D14
 70
     1
 10
0.0
 20
0.0
 30
0.0
  3
*D14
  1

  0
LINE
  5
41109
330
4066D
100
AcDbEntity
  8
寸法線
370
    -2
100
AcDbLine
 10
12610.84899193276
 20
1409.70414755029
 30
0.0
 11
12610.84899193276
 21
1269.650660943542
 31
0.0
  0
LINE
  5
4110A
330
4066D
100
AcDbEntity
  8
寸法線
370
    -2
100
AcDbLine
 10
12437.87175995378
 20
1412.154147550291
 30
0.0
 11
12437.87175995378
 21
1269.650660943542
 31
0.0
  0
LINE
  5
4110B
330
4066D
100
AcDbEntity
  8
寸法線
370
    -2
100
AcDbLine
 10
12585.84899193276
 20
1274.650660943542
 30
0.0
 11
12462.87175995378
 21
1274.650660943542
 31
0.0
  0
INSERT
  5
4110C
330
4066D
100
AcDbEntity
  8
寸法線
370
    -2
100
AcDbBlockReference
  2
_Open30
 10
12610.84899193276
 20
1274.650660943542
 30
0.0
 41
25.0
 42
25.0
 43
25.0
  0
INSERT
  5
4110D
330
4066D
100
AcDbEntity
  8
寸法線
370
    -2
100
AcDbBlockReference
  2
_Open30
 10
12437.87175995378
 20
1274.650660943542
 30
0.0
 41
25.0
 42
25.0
 43
25.0
 50
180.0
  0
MTEXT
  5
4110E
330
4066D
100
AcDbEntity
  8
寸法線
100
AcDbMText
 10
12524.36037594327
 20
1297.150660943542
 30
0.0
 40
25.0
 41
0.0
 71
     5
 72
     1
  1
\A1;175
  7
Roman
 73
     1
 44
1.0
1001
ACAD
1000
MTEXTBEGIN
1070
    73
1070
     1
1070
    44
1040
1.0
1070
    74
1070
     0
1000
MTEXTEND
  0
POINT
  5
4110F
330
4066D
100
AcDbEntity
  8
Defpoints
 62
     0
100
AcDbPoint
 10
12610.84899193276
 20
1414.70414755029
 30
0.0
  0
POINT
  5
41110
330
4066D
100
AcDbEntity
  8
Defpoints
 62
     0
100
AcDbPoint
 10
12437.87175995378
 20
1417.15414755029
 30
0.0
  0
POINT
  5
41111
330
4066D
100
AcDbEntity
  8
Defpoints
 62
     0
100
AcDbPoint
 10
12437.87175995378
 20
1274.650660943542
 30
0.0
  0
ENDBLK
  5
4066F
330
4066D
100
AcDbEntity
  8
0
100
AcDbBlockEnd
  0
BLOCK
  5
40694
330
40693
100
AcDbEntity
  8
0
100
AcDbBlockBegin
  2
*D15
 70
     1
 10
0.0
 20
0.0
 30
0.0
  3
*D15
  1

  0
LINE
  5
411C5
330
40693
100
AcDbEntity
  8
寸法線
370
    -2
100
AcDbLine
 10
11157.35620858599
 20
2863.030762564659
 30
0.0
 11
11064.55716196487
 21
2863.030762564659
 31
0.0
  0
LINE
  5
411C6
330
40693
100
AcDbEntity
  8
寸法線
370
    -2
100
AcDbLine
 10
11204.35622074534
 20
2817.530762564658
 30
0.0
 11
11064.55716196487
 21
2817.530762564658
 31
0.0
  0
LINE
  5
411C7
330
40693
100
AcDbEntity
  8
寸法線
370
    -2
100
AcDbLine
 10
11069.55716196487
 20
2792.530762564658
 30
0.0
 11
11069.55716196487
 21
2767.530762564658
 31
0.0
  0
LINE
  5
411C8
330
40693
100
AcDbEntity
  8
寸法線
370
    -2
100
AcDbLine
 10
11069.55716196487
 20
2888.030762564659
 30
0.0
 11
11069.55716196487
 21
3032.844725692973
 31
0.0
  0
LINE
  5
411C9
330
40693
100
AcDbEntity
  8
寸法線
370
    -2
100
AcDbLine
 10
11069.55716196487
 20
2817.530762564658
 30
0.0
 11
11069.55716196487
 21
2863.030762564659
 31
0.0
  0
INSERT
  5
411CA
330
40693
100
AcDbEntity
  8
寸法線
370
    -2
100
AcDbBlockReference
  2
_Open30
 10
11069.55716196487
 20
2817.530762564658
 30
0.0
 41
25.0
 42
25.0
 43
25.0
 50
90.0
  0
INSERT
  5
411CB
330
40693
100
AcDbEntity
  8
寸法線
370
    -2
100
AcDbBlockReference
  2
_Open30
 10
11069.55716196487
 20
2863.030762564659
 30
0.0
 41
25.0
 42
25.0
 43
25.0
 50
270.0
  0
MTEXT
  5
411CC
330
40693
100
AcDbEntity
  8
寸法線
100
AcDbMText
 10
11047.05716196487
 20
3006.178059026308
 30
0.0
 40
25.0
 41
0.0
 71
     5
 72
     1
  1
\A1;45
  7
Roman
 11
0.0000000000000001
 21
1.0
 31
0.0
 73
     1
 44
1.0
1001
ACAD
1000
MTEXTBEGIN
1070
    73
1070
     1
1070
    44
1040
1.0
1070
    74
1070
     0
1000
MTEXTEND
  0
POINT
  5
411CD
330
40693
100
AcDbEntity
  8
Defpoints
 62
     0
100
AcDbPoint
 10
11162.35620858599
 20
2863.030762564659
 30
0.0
  0
POINT
  5
411CE
330
40693
100
AcDbEntity
  8
Defpoints
 62
     0
100
AcDbPoint
 10
11209.35622074534
 20
2817.530762564658
 30
0.0
  0
POINT
  5
411CF
330
40693
100
AcDbEntity
  8
Defpoints
 62
     0
100
AcDbPoint
 10
11069.55716196487
 20
2817.530762564658
 30
0.0
  0
ENDBLK
  5
40695
330
40693
100
AcDbEntity
  8
0
100
AcDbBlockEnd
  0
BLOCK
  5
406A2
330
406A1
100
AcDbEntity
  8
0
100
AcDbBlockBegin
  2
*D16
 70
     1
 10
0.0
 20
0.0
 30
0.0
  3
*D16
  1

  0
LINE
  5
411D0
330
406A1
100
AcDbEntity
  8
寸法線
370
    -2
100
AcDbLine
 10
11204.35622074534
 20
2817.530762564658
 30
0.0
 11
11064.55716196488
 21
2817.530762564658
 31
0.0
  0
LINE
  5
411D1
330
406A1
100
AcDbEntity
  8
寸法線
370
    -2
100
AcDbLine
 10
11204.35622074534
 20
2737.530762564659
 30
0.0
 11
11064.55716196488
 21
2737.530762564659
 31
0.0
  0
LINE
  5
411D2
330
406A1
100
AcDbEntity
  8
寸法線
370
    -2
100
AcDbLine
 10
11069.55716196488
 20
2792.530762564658
 30
0.0
 11
11069.55716196488
 21
2762.530762564659
 31
0.0
  0
INSERT
  5
411D3
330
406A1
100
AcDbEntity
  8
寸法線
370
    -2
100
AcDbBlockReference
  2
_Open30
 10
11069.55716196488
 20
2817.530762564658
 30
0.0
 41
25.0
 42
25.0
 43
25.0
 50
90.0
  0
INSERT
  5
411D4
330
406A1
100
AcDbEntity
  8
寸法線
370
    -2
100
AcDbBlockReference
  2
_Open30
 10
11069.55716196488
 20
2737.530762564659
 30
0.0
 41
25.0
 42
25.0
 43
25.0
 50
270.0
  0
MTEXT
  5
411D5
330
406A1
100
AcDbEntity
  8
寸法線
100
AcDbMText
 10
11047.05716196488
 20
2777.530762564661
 30
0.0
 40
25.0
 41
0.0
 71
     5
 72
     1
  1
\A1;80
  7
Roman
 11
0.0000000000000001
 21
1.0
 31
0.0
 73
     1
 44
1.0
1001
ACAD
1000
MTEXTBEGIN
1070
    73
1070
     1
1070
    44
1040
1.0
1070
    74
1070
     0
1000
MTEXTEND
  0
POINT
  5
411D6
330
406A1
100
AcDbEntity
  8
Defpoints
 62
     0
100
AcDbPoint
 10
11209.35622074534
 20
2817.530762564658
 30
0.0
  0
POINT
  5
411D7
330
406A1
100
AcDbEntity
  8
Defpoints
 62
     0
100
AcDbPoint
 10
11209.35622074534
 20
2737.530762564659
 30
0.0
  0
POINT
  5
411D8
330
406A1
100
AcDbEntity
  8
Defpoints
 62
     0
100
AcDbPoint
 10
11069.55716196488
 20
2737.530762564659
 30
0.0
  0
ENDBLK
  5
406A3
330
406A1
100
AcDbEntity
  8
0
100
AcDbBlockEnd
  0
BLOCK
  5
406BA
330
406B9
100
AcDbEntity
  8
0
100
AcDbBlockBegin
  2
*D17
 70
     1
 10
0.0
 20
0.0
 30
0.0
  3
*D17
  1

  0
LINE
  5
4136C
330
406B9
100
AcDbEntity
  8
寸法線
370
    -2
100
AcDbLine
 10
10668.35622074534
 20
2215.322163186694
 30
0.0
 11
10668.35622074534
 21
2142.077831270913
 31
0.0
  0
LINE
  5
4136D
330
406B9
100
AcDbEntity
  8
寸法線
370
    -2
100
AcDbLine
 10
12168.35622074534
 20
2220.223589011101
 30
0.0
 11
12168.35622074534
 21
2142.077831270913
 31
0.0
  0
LINE
  5
4136E
330
406B9
100
AcDbEntity
  8
寸法線
370
    -2
100
AcDbLine
 10
10693.35622074534
 20
2147.077831270914
 30
0.0
 11
12143.35622074534
 21
2147.077831270914
 31
0.0
  0
INSERT
  5
4136F
330
406B9
100
AcDbEntity
  8
寸法線
370
    -2
100
AcDbBlockReference
  2
_Open30
 10
10668.35622074534
 20
2147.077831270914
 30
0.0
 41
25.0
 42
25.0
 43
25.0
 50
180.0
  0
INSERT
  5
41370
330
406B9
100
AcDbEntity
  8
寸法線
370
    -2
100
AcDbBlockReference
  2
_Open30
 10
12168.35622074534
 20
2147.077831270914
 30
0.0
 41
25.0
 42
25.0
 43
25.0
  0
MTEXT
  5
41371
330
406B9
100
AcDbEntity
  8
寸法線
100
AcDbMText
 10
11418.35622074534
 20
2169.577831270913
 30
0.0
 40
25.0
 41
0.0
 71
     5
 72
     1
  1
\A1;1500
  7
Roman
 73
     1
 44
1.0
1001
ACAD
1000
MTEXTBEGIN
1070
    73
1070
     1
1070
    44
1040
1.0
1070
    74
1070
     0
1000
MTEXTEND
  0
POINT
  5
41372
330
406B9
100
AcDbEntity
  8
Defpoints
 62
     0
100
AcDbPoint
 10
10668.35622074534
 20
2220.322163186695
 30
0.0
  0
POINT
  5
41373
330
406B9
100
AcDbEntity
  8
Defpoints
 62
     0
100
AcDbPoint
 10
12168.35622074534
 20
2225.2235890111
 30
0.0
  0
POINT
  5
41374
330
406B9
100
AcDbEntity
  8
Defpoints
 62
     0
100
AcDbPoint
 10
12168.35622074534
 20
2147.077831270914
 30
0.0
  0
ENDBLK
  5
406BB
330
406B9
100
AcDbEntity
  8
0
100
AcDbBlockEnd
  0
BLOCK
  5
406C6
330
406C5
100
AcDbEntity
  8
0
100
AcDbBlockBegin
  2
*D18
 70
     1
 10
0.0
 20
0.0
 30
0.0
  3
*D18
  1

  0
LINE
  5
41198
330
406C5
100
AcDbEntity
  8
寸法線
370
    -2
100
AcDbLine
 10
13083.87649172347
 20
1414.704146357483
 30
0.0
 11
12829.04590283928
 21
1414.704146357483
 31
0.0
  0
LINE
  5
41199
330
406C5
100
AcDbEntity
  8
寸法線
370
    -2
100
AcDbLine
 10
12919.37649731447
 20
1708.904147838086
 30
0.0
 11
12829.04590283928
 21
1708.904147838086
 31
0.0
  0
LINE
  5
4119A
330
406C5
100
AcDbEntity
  8
寸法線
370
    -2
100
AcDbLine
 10
12834.04590283928
 20
1439.704146357483
 30
0.0
 11
12834.04590283928
 21
1683.904147838086
 31
0.0
  0
INSERT
  5
4119B
330
406C5
100
AcDbEntity
  8
寸法線
370
    -2
100
AcDbBlockReference
  2
_Open30
 10
12834.04590283928
 20
1414.704146357483
 30
0.0
 41
25.0
 42
25.0
 43
25.0
 50
270.0
  0
INSERT
  5
4119C
330
406C5
100
AcDbEntity
  8
寸法線
370
    -2
100
AcDbBlockReference
  2
_Open30
 10
12834.04590283928
 20
1708.904147838086
 30
0.0
 41
25.0
 42
25.0
 43
25.0
 50
90.0
  0
MTEXT
  5
4119D
330
406C5
100
AcDbEntity
  8
寸法線
100
AcDbMText
 10
12811.54590283928
 20
1561.804147097786
 30
0.0
 40
25.0
 41
0.0
 71
     5
 72
     1
  1
\A1;295
  7
Roman
 11
0.0000000000000001
 21
1.0
 31
0.0
 73
     1
 44
1.0
1001
ACAD
1000
MTEXTBEGIN
1070
    73
1070
     1
1070
    44
1040
1.0
1070
    74
1070
     0
1000
MTEXTEND
  0
POINT
  5
4119E
330
406C5
100
AcDbEntity
  8
Defpoints
 62
     0
100
AcDbPoint
 10
13088.87649172347
 20
1414.704146357483
 30
0.0
  0
POINT
  5
4119F
330
406C5
100
AcDbEntity
  8
Defpoints
 62
     0
100
AcDbPoint
 10
12924.37649731447
 20
1708.904147838086
 30
0.0
  0
POINT
  5
411A0
330
406C5
100
AcDbEntity
  8
Defpoints
 62
     0
100
AcDbPoint
 10
12834.04590283928
 20
1708.904147838086
 30
0.0
  0
ENDBLK
  5
406C7
330
406C5
100
AcDbEntity
  8
0
100
AcDbBlockEnd
  0
BLOCK
  5
406D2
330
406D1
100
AcDbEntity
  8
0
100
AcDbBlockBegin
  2
*D19
 70
     1
 10
0.0
 20
0.0
 30
0.0
  3
*D19
  1

  0
LINE
  5
40EA6
330
406D1
100
AcDbEntity
  8
寸法線
370
    -2
100
AcDbLine
 10
13797.492514883
 20
3020.941323057152
 30
0.0
 11
13889.56468793044
 21
3020.941323057152
 31
0.0
  0
LINE
  5
40EA7
330
406D1
100
AcDbEntity
  8
寸法線
370
    -2
100
AcDbLine
 10
13824.95969915951
 20
2362.803068807183
 30
0.0
 11
13889.56468793044
 21
2362.803068807183
 31
0.0
  0
LINE
  5
40EA8
330
406D1
100
AcDbEntity
  8
寸法線
370
    -2
100
AcDbLine
 10
13884.56468793044
 20
2995.941323057152
 30
0.0
 11
13884.56468793044
 21
2387.803068807183
 31
0.0
  0
INSERT
  5
40EA9
330
406D1
100
AcDbEntity
  8
寸法線
370
    -2
100
AcDbBlockReference
  2
_Open30
 10
13884.56468793044
 20
3020.941323057152
 30
0.0
 41
25.0
 42
25.0
 43
25.0
 50
90.0
  0
INSERT
  5
40EAA
330
406D1
100
AcDbEntity
  8
寸法線
370
    -2
100
AcDbBlockReference
  2
_Open30
 10
13884.56468793044
 20
2362.803068807183
 30
0.0
 41
25.0
 42
25.0
 43
25.0
 50
270.0
  0
MTEXT
  5
40EAB
330
406D1
100
AcDbEntity
  8
寸法線
100
AcDbMText
 10
13862.06468793044
 20
2691.87219593217
 30
0.0
 40
25.0
 41
0.0
 71
     5
 72
     1
  1
\A1;990
  7
Roman
 11
0.0000000000000001
 21
1.0
 31
0.0
 73
     1
 44
1.0
1001
ACAD
1000
MTEXTBEGIN
1070
    73
1070
     1
1070
    44
1040
1.0
1070
    74
1070
     0
1000
MTEXTEND
  0
POINT
  5
40EAC
330
406D1
100
AcDbEntity
  8
Defpoints
 62
     0
100
AcDbPoint
 10
13792.492514883
 20
3020.941323057152
 30
0.0
  0
POINT
  5
40EAD
330
406D1
100
AcDbEntity
  8
Defpoints
 62
     0
100
AcDbPoint
 10
13819.95969915951
 20
2362.803068807183
 30
0.0
  0
POINT
  5
40EAE
330
406D1
100
AcDbEntity
  8
Defpoints
 62
     0
100
AcDbPoint
 10
13884.56468793044
 20
2362.803068807183
 30
0.0
  0
ENDBLK
  5
406D3
330
406D1
100
AcDbEntity
  8
0
100
AcDbBlockEnd
  0
BLOCK
  5
40895
330
40894
100
AcDbEntity
  8
0
100
AcDbBlockBegin
  2
*D20
 70
     1
 10
0.0
 20
0.0
 30
0.0
  3
*D20
  1

  0
LINE
  5
40FB1
330
40894
100
AcDbEntity
  8
寸法線
370
    -2
100
AcDbLine
 10
11179.8062207454
 20
2003.384751063557
 30
0.0
 11
11179.8062207454
 21
2070.071047631716
 31
0.0
  0
LINE
  5
40FB2
330
40894
100
AcDbEntity
  8
寸法線
370
    -2
100
AcDbLine
 10
11656.90622074539
 20
2012.849880177746
 30
0.0
 11
11656.90622074539
 21
2070.071047631716
 31
0.0
  0
LINE
  5
40FB3
330
40894
100
AcDbEntity
  8
寸法線
370
    -2
100
AcDbLine
 10
11204.8062207454
 20
2065.071047631716
 30
0.0
 11
11631.9062207454
 21
2065.071047631716
 31
0.0
  0
INSERT
  5
40FB4
330
40894
100
AcDbEntity
  8
寸法線
370
    -2
100
AcDbBlockReference
  2
_Open30
 10
11179.8062207454
 20
2065.071047631716
 30
0.0
 41
25.0
 42
25.0
 43
25.0
 50
180.0
  0
INSERT
  5
40FB5
330
40894
100
AcDbEntity
  8
寸法線
370
    -2
100
AcDbBlockReference
  2
_Open30
 10
11656.90622074539
 20
2065.071047631716
 30
0.0
 41
25.0
 42
25.0
 43
25.0
  0
MTEXT
  5
40FB6
330
40894
100
AcDbEntity
  8
寸法線
100
AcDbMText
 10
11418.3562207454
 20
2087.571047631716
 30
0.0
 40
25.0
 41
0.0
 71
     5
 72
     1
  1
\A1;480
  7
Roman
 73
     1
 44
1.0
1001
ACAD
1000
MTEXTBEGIN
1070
    73
1070
     1
1070
    44
1040
1.0
1070
    74
1070
     0
1000
MTEXTEND
  0
POINT
  5
40FB7
330
40894
100
AcDbEntity
  8
Defpoints
 62
     0
100
AcDbPoint
 10
11179.8062207454
 20
1998.384751063557
 30
0.0
  0
POINT
  5
40FB8
330
40894
100
AcDbEntity
  8
Defpoints
 62
     0
100
AcDbPoint
 10
11656.90622074539
 20
2007.849880177746
 30
0.0
  0
POINT
  5
40FB9
330
40894
100
AcDbEntity
  8
Defpoints
 62
     0
100
AcDbPoint
 10
11656.90622074539
 20
2065.071047631716
 30
0.0
  0
ENDBLK
  5
40896
330
40894
100
AcDbEntity
  8
0
100
AcDbBlockEnd
  0
BLOCK
  5
408AB
330
408AA
100
AcDbEntity
  8
0
100
AcDbBlockBegin
  2
*D21
 70
     1
 10
0.0
 20
0.0
 30
0.0
  3
*D21
  1

  0
LINE
  5
40FA8
330
408AA
100
AcDbEntity
  8
寸法線
370
    -2
100
AcDbLine
 10
11637.24974362073
 20
2034.843584502831
 30
0.0
 11
11780.93014266064
 21
2034.843584502831
 31
0.0
  0
LINE
  5
40FA9
330
408AA
100
AcDbEntity
  8
寸法線
370
    -2
100
AcDbLine
 10
11700.06818170302
 20
1914.904138815661
 30
0.0
 11
11780.93014266064
 21
1914.90413881566
 31
0.0
  0
LINE
  5
40FAA
330
408AA
100
AcDbEntity
  8
寸法線
370
    -2
100
AcDbLine
 10
11775.93014266064
 20
2009.843584502831
 30
0.0
 11
11775.93014266064
 21
1939.904138815661
 31
0.0
  0
INSERT
  5
40FAB
330
408AA
100
AcDbEntity
  8
寸法線
370
    -2
100
AcDbBlockReference
  2
_Open30
 10
11775.93014266064
 20
2034.843584502831
 30
0.0
 41
25.0
 42
25.0
 43
25.0
 50
90.0
  0
INSERT
  5
40FAC
330
408AA
100
AcDbEntity
  8
寸法線
370
    -2
100
AcDbBlockReference
  2
_Open30
 10
11775.93014266064
 20
1914.904138815661
 30
0.0
 41
25.0
 42
25.0
 43
25.0
 50
270.0
  0
MTEXT
  5
40FAD
330
408AA
100
AcDbEntity
  8
寸法線
100
AcDbMText
 10
11753.43014266064
 20
1974.873861659247
 30
0.0
 40
25.0
 41
0.0
 71
     5
 72
     1
  1
\A1;120
  7
Roman
 11
0.0000000000000001
 21
1.0
 31
0.0
 73
     1
 44
1.0
1001
ACAD
1000
MTEXTBEGIN
1070
    73
1070
     1
1070
    44
1040
1.0
1070
    74
1070
     0
1000
MTEXTEND
  0
POINT
  5
40FAE
330
408AA
100
AcDbEntity
  8
Defpoints
 62
     0
100
AcDbPoint
 10
11632.24974362073
 20
2034.843584502831
 30
0.0
  0
POINT
  5
40FAF
330
408AA
100
AcDbEntity
  8
Defpoints
 62
     0
100
AcDbPoint
 10
11695.06818170302
 20
1914.904138815661
 30
0.0
  0
POINT
  5
40FB0
330
408AA
100
AcDbEntity
  8
Defpoints
 62
     0
100
AcDbPoint
 10
11775.93014266064
 20
1914.904138815661
 30
0.0
  0
ENDBLK
  5
408AC
330
408AA
100
AcDbEntity
  8
0
100
AcDbBlockEnd
  0
BLOCK
  5
408C1
330
408C0
100
AcDbEntity
  8
0
100
AcDbBlockBegin
  2
*D22
 70
     1
 10
0.0
 20
0.0
 30
0.0
  3
*D22
  1

  0
LINE
  5
40DEC
330
408C0
100
AcDbEntity
  8
寸法線
370
    -2
100
AcDbLine
 10
11213.01522875669
 20
2034.843584502831
 30
0.0
 11
11109.18693057482
 21
2034.843584502831
 31
0.0
  0
LINE
  5
40DED
330
408C0
100
AcDbEntity
  8
寸法線
370
    -2
100
AcDbLine
 10
11204.82156027946
 20
2009.443584502832
 30
0.0
 11
11109.18693057482
 21
2009.443584502832
 31
0.0
  0
LINE
  5
40DEE
330
408C0
100
AcDbEntity
  8
寸法線
370
    -2
100
AcDbLine
 10
11114.18693057482
 20
2059.843584502831
 30
0.0
 11
11114.18693057482
 21
2084.843584502831
 31
0.0
  0
LINE
  5
40DEF
330
408C0
100
AcDbEntity
  8
寸法線
370
    -2
100
AcDbLine
 10
11114.18693057482
 20
1984.443584502831
 30
0.0
 11
11114.18693057482
 21
1959.443584502831
 31
0.0
  0
LINE
  5
40DF0
330
408C0
100
AcDbEntity
  8
寸法線
370
    -2
100
AcDbLine
 10
11114.18693057482
 20
2034.843584502831
 30
0.0
 11
11114.18693057482
 21
2009.443584502832
 31
0.0
  0
INSERT
  5
40DF1
330
408C0
100
AcDbEntity
  8
寸法線
370
    -2
100
AcDbBlockReference
  2
_Open30
 10
11114.18693057482
 20
2034.843584502831
 30
0.0
 41
25.0
 42
25.0
 43
25.0
 50
270.0
  0
INSERT
  5
40DF2
330
408C0
100
AcDbEntity
  8
寸法線
370
    -2
100
AcDbBlockReference
  2
_Open30
 10
11114.18693057482
 20
2009.443584502832
 30
0.0
 41
25.0
 42
25.0
 43
25.0
 50
90.0
  0
MTEXT
  5
40DF3
330
408C0
100
AcDbEntity
  8
寸法線
100
AcDbMText
 10
11091.68693057482
 20
2022.143584502833
 30
0.0
 40
25.0
 41
0.0
 71
     5
 72
     1
  1
\A1;φ25
  7
Roman
 11
0.0000000000000001
 21
1.0
 31
0.0
 73
     1
 44
1.0
1001
ACAD
1000
MTEXTBEGIN
1070
    73
1070
     1
1070
    44
1040
1.0
1070
    74
1070
     0
1000
MTEXTEND
  0
POINT
  5
40DF4
330
408C0
100
AcDbEntity
  8
Defpoints
 62
     0
100
AcDbPoint
 10
11218.01522875669
 20
2034.843584502831
 30
0.0
  0
POINT
  5
40DF5
330
408C0
100
AcDbEntity
  8
Defpoints
 62
     0
100
AcDbPoint
 10
11209.82156027946
 20
2009.443584502832
 30
0.0
  0
POINT
  5
40DF6
330
408C0
100
AcDbEntity
  8
Defpoints
 62
     0
100
AcDbPoint
 10
11114.18693057482
 20
2009.443584502832
 30
0.0
  0
ENDBLK
  5
408C2
330
408C0
100
AcDbEntity
  8
0
100
AcDbBlockEnd
  0
BLOCK
  5
40B10
330
40B0F
100
AcDbEntity
  8
0
100
AcDbBlockBegin
  2
*D23
 70
     1
 10
0.0
 20
0.0
 30
0.0
  3
*D23
  1

  0
LINE
  5
4117C
330
40B0F
100
AcDbEntity
  8
寸法線
370
    -2
100
AcDbLine
 10
13850.91596178048
 20
1561.904146357482
 30
0.0
 11
13850.91596178048
 21
1291.359149053491
 31
0.0
  0
LINE
  5
4117D
330
40B0F
100
AcDbEntity
  8
寸法線
370
    -2
100
AcDbLine
 10
14250.9159527473
 20
1551.512547871262
 30
0.0
 11
14250.9159527473
 21
1291.359149053491
 31
0.0
  0
LINE
  5
4117E
330
40B0F
100
AcDbEntity
  8
寸法線
370
    -2
100
AcDbLine
 10
13875.91596178048
 20
1296.359149053491
 30
0.0
 11
14225.9159527473
 21
1296.359149053491
 31
0.0
  0
INSERT
  5
4117F
330
40B0F
100
AcDbEntity
  8
寸法線
370
    -2
100
AcDbBlockReference
  2
_Open30
 10
13850.91596178048
 20
1296.359149053491
 30
0.0
 41
25.0
 42
25.0
 43
25.0
 50
180.0
  0
INSERT
  5
41180
330
40B0F
100
AcDbEntity
  8
寸法線
370
    -2
100
AcDbBlockReference
  2
_Open30
 10
14250.9159527473
 20
1296.359149053491
 30
0.0
 41
25.0
 42
25.0
 43
25.0
  0
MTEXT
  5
41181
330
40B0F
100
AcDbEntity
  8
寸法線
100
AcDbMText
 10
14050.91595726389
 20
1318.859149053491
 30
0.0
 40
25.0
 41
0.0
 71
     5
 72
     1
  1
\A1;400
  7
Roman
 73
     1
 44
1.0
1001
ACAD
1000
MTEXTBEGIN
1070
    73
1070
     1
1070
    44
1040
1.0
1070
    74
1070
     0
1000
MTEXTEND
  0
POINT
  5
41182
330
40B0F
100
AcDbEntity
  8
Defpoints
 62
     0
100
AcDbPoint
 10
13850.91596178048
 20
1566.904146357482
 30
0.0
  0
POINT
  5
41183
330
40B0F
100
AcDbEntity
  8
Defpoints
 62
     0
100
AcDbPoint
 10
14250.9159527473
 20
1556.512547871261
 30
0.0
  0
POINT
  5
41184
330
40B0F
100
AcDbEntity
  8
Defpoints
 62
     0
100
AcDbPoint
 10
14250.9159527473
 20
1296.359149053491
 30
0.0
  0
ENDBLK
  5
40B11
330
40B0F
100
AcDbEntity
  8
0
100
AcDbBlockEnd
  0
BLOCK
  5
40B1C
330
40B1B
100
AcDbEntity
  8
0
100
AcDbBlockBegin
  2
*D24
 70
     1
 10
0.0
 20
0.0
 30
0.0
  3
*D24
  1

  0
LINE
  5
40B3C
330
40B1B
100
AcDbEntity
  8
寸法線
370
    -2
100
AcDbLine
 10
14055.91595726389
 20
1664.404146357482
 30
0.0
 11
14196.69973638198
 21
1664.404146357482
 31
0.0
  0
LINE
  5
40B3D
330
40B1B
100
AcDbEntity
  8
寸法線
370
    -2
100
AcDbLine
 10
14055.91595726389
 20
1584.404146357482
 30
0.0
 11
14196.69973638198
 21
1584.404146357482
 31
0.0
  0
LINE
  5
40B3E
330
40B1B
100
AcDbEntity
  8
寸法線
370
    -2
100
AcDbLine
 10
14191.69973638198
 20
1639.404146357482
 30
0.0
 11
14191.69973638198
 21
1609.404146357482
 31
0.0
  0
INSERT
  5
40B3F
330
40B1B
100
AcDbEntity
  8
寸法線
370
    -2
100
AcDbBlockReference
  2
_Open30
 10
14191.69973638198
 20
1664.404146357482
 30
0.0
 41
25.0
 42
25.0
 43
25.0
 50
90.0
  0
INSERT
  5
40B40
330
40B1B
100
AcDbEntity
  8
寸法線
370
    -2
100
AcDbBlockReference
  2
_Open30
 10
14191.69973638198
 20
1584.404146357482
 30
0.0
 41
25.0
 42
25.0
 43
25.0
 50
270.0
  0
MTEXT
  5
40B41
330
40B1B
100
AcDbEntity
  8
寸法線
100
AcDbMText
 10
14169.19973638198
 20
1624.404146357484
 30
0.0
 40
25.0
 41
0.0
 71
     5
 72
     1
  1
\A1;80
  7
Roman
 11
0.0000000000000001
 21
1.0
 31
0.0
 73
     1
 44
1.0
1001
ACAD
1000
MTEXTBEGIN
1070
    73
1070
     1
1070
    44
1040
1.0
1070
    74
1070
     0
1000
MTEXTEND
  0
POINT
  5
40B42
330
40B1B
100
AcDbEntity
  8
Defpoints
 62
     0
100
AcDbPoint
 10
14050.91595726389
 20
1664.404146357482
 30
0.0
  0
POINT
  5
40B43
330
40B1B
100
AcDbEntity
  8
Defpoints
 62
     0
100
AcDbPoint
 10
14050.91595726389
 20
1584.404146357482
 30
0.0
  0
POINT
  5
40B44
330
40B1B
100
AcDbEntity
  8
Defpoints
 62
     0
100
AcDbPoint
 10
14191.69973638198
 20
1584.404146357482
 30
0.0
  0
ENDBLK
  5
40B1D
330
40B1B
100
AcDbEntity
  8
0
100
AcDbBlockEnd
  0
BLOCK
  5
40B28
330
40B27
100
AcDbEntity
  8
0
100
AcDbBlockBegin
  2
*D25
 70
     1
 10
0.0
 20
0.0
 30
0.0
  3
*D25
  1

  0
LINE
  5
40B4F
330
40B27
100
AcDbEntity
  8
寸法線
370
    -2
100
AcDbLine
 10
14055.91595726389
 20
1584.404146357482
 30
0.0
 11
14196.69973638198
 21
1584.404146357482
 31
0.0
  0
LINE
  5
40B50
330
40B27
100
AcDbEntity
  8
寸法線
370
    -2
100
AcDbLine
 10
14055.91595726389
 20
1413.204146357481
 30
0.0
 11
14196.69973638198
 21
1413.204146357481
 31
0.0
  0
LINE
  5
40B51
330
40B27
100
AcDbEntity
  8
寸法線
370
    -2
100
AcDbLine
 10
14191.69973638198
 20
1559.404146357482
 30
0.0
 11
14191.69973638198
 21
1438.204146357481
 31
0.0
  0
INSERT
  5
40B52
330
40B27
100
AcDbEntity
  8
寸法線
370
    -2
100
AcDbBlockReference
  2
_Open30
 10
14191.69973638198
 20
1584.404146357482
 30
0.0
 41
25.0
 42
25.0
 43
25.0
 50
90.0
  0
INSERT
  5
40B53
330
40B27
100
AcDbEntity
  8
寸法線
370
    -2
100
AcDbBlockReference
  2
_Open30
 10
14191.69973638198
 20
1413.204146357481
 30
0.0
 41
25.0
 42
25.0
 43
25.0
 50
270.0
  0
MTEXT
  5
40B54
330
40B27
100
AcDbEntity
  8
寸法線
100
AcDbMText
 10
14169.19973638198
 20
1498.804146357484
 30
0.0
 40
25.0
 41
0.0
 71
     5
 72
     1
  1
\A1;170
  7
Roman
 11
0.0000000000000001
 21
1.0
 31
0.0
 73
     1
 44
1.0
1001
ACAD
1000
MTEXTBEGIN
1070
    73
1070
     1
1070
    44
1040
1.0
1070
    74
1070
     0
1000
MTEXTEND
  0
POINT
  5
40B55
330
40B27
100
AcDbEntity
  8
Defpoints
 62
     0
100
AcDbPoint
 10
14050.91595726389
 20
1584.404146357482
 30
0.0
  0
POINT
  5
40B56
330
40B27
100
AcDbEntity
  8
Defpoints
 62
     0
100
AcDbPoint
 10
14050.91595726389
 20
1413.204146357481
 30
0.0
  0
POINT
  5
40B57
330
40B27
100
AcDbEntity
  8
Defpoints
 62
     0
100
AcDbPoint
 10
14191.69973638198
 20
1413.204146357481
 30
0.0
  0
ENDBLK
  5
40B29
330
40B27
100
AcDbEntity
  8
0
100
AcDbBlockEnd
  0
BLOCK
  5
4134F
330
41345
100
AcDbEntity
  8
0
100
AcDbBlockBegin
  2
*D26
 70
     1
 10
0.0
 20
0.0
 30
0.0
  3
*D26
  1

  0
LINE
  5
41375
330
41345
100
AcDbEntity
  8
寸法線
370
    -2
100
AcDbLine
 10
12168.35622074534
 20
2217.902009128857
 30
0.0
 11
12168.35622074534
 21
2142.412767755782
 31
0.0
  0
LINE
  5
41376
330
41345
100
AcDbEntity
  8
寸法線
370
    -2
100
AcDbLine
 10
12299.7423946345
 20
2154.03645382171
 30
0.0
 11
12299.7423946345
 21
2142.412767755782
 31
0.0
  0
LINE
  5
41377
330
41345
100
AcDbEntity
  8
寸法線
370
    -2
100
AcDbLine
 10
12193.35622074534
 20
2147.412767755782
 30
0.0
 11
12274.7423946345
 21
2147.412767755782
 31
0.0
  0
INSERT
  5
41378
330
41345
100
AcDbEntity
  8
寸法線
370
    -2
100
AcDbBlockReference
  2
_Open30
 10
12168.35622074534
 20
2147.412767755782
 30
0.0
 41
25.0
 42
25.0
 43
25.0
 50
180.0
  0
INSERT
  5
41379
330
41345
100
AcDbEntity
  8
寸法線
370
    -2
100
AcDbBlockReference
  2
_Open30
 10
12299.7423946345
 20
2147.412767755782
 30
0.0
 41
25.0
 42
25.0
 43
25.0
  0
MTEXT
  5
4137A
330
41345
100
AcDbEntity
  8
寸法線
100
AcDbMText
 10
12234.04930768992
 20
2169.912767755782
 30
0.0
 40
25.0
 41
0.0
 71
     5
 72
     1
  1
\A1;※3
  7
Roman
 73
     1
 44
1.0
1001
ACAD
1000
MTEXTBEGIN
1070
    73
1070
     1
1070
    44
1040
1.0
1070
    74
1070
     0
1000
MTEXTEND
  0
POINT
  5
4137B
330
41345
100
AcDbEntity
  8
Defpoints
 62
     0
100
AcDbPoint
 10
12168.35622074534
 20
2222.902009128857
 30
0.0
  0
POINT
  5
4137C
330
41345
100
AcDbEntity
  8
Defpoints
 62
     0
100
AcDbPoint
 10
12299.7423946345
 20
2159.03645382171
 30
0.0
  0
POINT
  5
4137D
330
41345
100
AcDbEntity
  8
Defpoints
 62
     0
100
AcDbPoint
 10
12299.7423946345
 20
2147.412767755782
 30
0.0
  0
ENDBLK
  5
41350
330
41345
100
AcDbEntity
  8
0
100
AcDbBlockEnd
  0
BLOCK
  5
42D1A
330
42D19
100
AcDbEntity
  8
0
100
AcDbBlockBegin
  2
*D61
 70
     1
 10
0.0
 20
0.0
 30
0.0
  3
*D61
  1

  0
LINE
  5
42EB7
330
42D19
100
AcDbEntity
  8
寸法線
370
    -2
100
AcDbLine
 10
17069.13382849952
 20
2121.557545753201
 30
0.0
 11
17069.13382849952
 21
2294.523092615622
 31
0.0
  0
LINE
  5
42EB8
330
42D19
100
AcDbEntity
  8
寸法線
370
    -2
100
AcDbLine
 10
17369.13382849953
 20
2121.557545753201
 30
0.0
 11
17369.13382849953
 21
2294.523092615622
 31
0.0
  0
LINE
  5
42EB9
330
42D19
100
AcDbEntity
  8
寸法線
370
    -2
100
AcDbLine
 10
17094.13382849952
 20
2289.523092615622
 30
0.0
 11
17344.13382849953
 21
2289.523092615622
 31
0.0
  0
INSERT
  5
42EBA
330
42D19
100
AcDbEntity
  8
寸法線
370
    -2
100
AcDbBlockReference
  2
_Open30
 10
17069.13382849952
 20
2289.523092615622
 30
0.0
 41
25.0
 42
25.0
 43
25.0
 50
180.0
  0
INSERT
  5
42EBB
330
42D19
100
AcDbEntity
  8
寸法線
370
    -2
100
AcDbBlockReference
  2
_Open30
 10
17369.13382849953
 20
2289.523092615622
 30
0.0
 41
25.0
 42
25.0
 43
25.0
  0
MTEXT
  5
42EBC
330
42D19
100
AcDbEntity
  8
寸法線
100
AcDbMText
 10
17219.13382849953
 20
2312.023092615622
 30
0.0
 40
25.0
 41
0.0
 71
     5
 72
     1
  1
\A1;300
  7
Roman
 73
     1
 44
1.0
1001
ACAD
1000
MTEXTBEGIN
1070
    73
1070
     1
1070
    44
1040
1.0
1070
    74
1070
     0
1000
MTEXTEND
  0
POINT
  5
42EBD
330
42D19
100
AcDbEntity
  8
Defpoints
 62
     0
100
AcDbPoint
 10
17069.13382849952
 20
2116.557545753201
 30
0.0
  0
POINT
  5
42EBE
330
42D19
100
AcDbEntity
  8
Defpoints
 62
     0
100
AcDbPoint
 10
17369.13382849953
 20
2116.557545753201
 30
0.0
  0
POINT
  5
42EBF
330
42D19
100
AcDbEntity
  8
Defpoints
 62
     0
100
AcDbPoint
 10
17369.13382849953
 20
2289.523092615622
 30
0.0
  0
ENDBLK
  5
42D1B
330
42D19
100
AcDbEntity
  8
0
100
AcDbBlockEnd
  0
BLOCK
  5
42D26
330
42D25
100
AcDbEntity
  8
0
100
AcDbBlockBegin
  2
*D62
 70
     1
 10
0.0
 20
0.0
 30
0.0
  3
*D62
  1

  0
LINE
  5
42EC0
330
42D25
100
AcDbEntity
  8
寸法線
370
    -2
100
AcDbLine
 10
17019.13382849953
 20
2121.557545753201
 30
0.0
 11
17019.13382849953
 21
2348.648216754762
 31
0.0
  0
LINE
  5
42EC1
330
42D25
100
AcDbEntity
  8
寸法線
370
    -2
100
AcDbLine
 10
17419.13382849953
 20
2121.557545753201
 30
0.0
 11
17419.13382849953
 21
2348.648216754762
 31
0.0
  0
LINE
  5
42EC2
330
42D25
100
AcDbEntity
  8
寸法線
370
    -2
100
AcDbLine
 10
17044.13382849953
 20
2343.648216754762
 30
0.0
 11
17394.13382849953
 21
2343.648216754762
 31
0.0
  0
INSERT
  5
42EC3
330
42D25
100
AcDbEntity
  8
寸法線
370
    -2
100
AcDbBlockReference
  2
_Open30
 10
17019.13382849953
 20
2343.648216754762
 30
0.0
 41
25.0
 42
25.0
 43
25.0
 50
180.0
  0
INSERT
  5
42EC4
330
42D25
100
AcDbEntity
  8
寸法線
370
    -2
100
AcDbBlockReference
  2
_Open30
 10
17419.13382849953
 20
2343.648216754762
 30
0.0
 41
25.0
 42
25.0
 43
25.0
  0
MTEXT
  5
42EC5
330
42D25
100
AcDbEntity
  8
寸法線
100
AcDbMText
 10
17219.13382849953
 20
2366.148216754762
 30
0.0
 40
25.0
 41
0.0
 71
     5
 72
     1
  1
\A1;400
  7
Roman
 73
     1
 44
1.0
1001
ACAD
1000
MTEXTBEGIN
1070
    73
1070
     1
1070
    44
1040
1.0
1070
    74
1070
     0
1000
MTEXTEND
  0
POINT
  5
42EC6
330
42D25
100
AcDbEntity
  8
Defpoints
 62
     0
100
AcDbPoint
 10
17019.13382849953
 20
2116.557545753201
 30
0.0
  0
POINT
  5
42EC7
330
42D25
100
AcDbEntity
  8
Defpoints
 62
     0
100
AcDbPoint
 10
17419.13382849953
 20
2116.557545753201
 30
0.0
  0
POINT
  5
42EC8
330
42D25
100
AcDbEntity
  8
Defpoints
 62
     0
100
AcDbPoint
 10
17419.13382849953
 20
2343.648216754762
 30
0.0
  0
ENDBLK
  5
42D27
330
42D25
100
AcDbEntity
  8
0
100
AcDbBlockEnd
  0
BLOCK
  5
42D32
330
42D31
100
AcDbEntity
  8
0
100
AcDbBlockBegin
  2
*D63
 70
     1
 10
0.0
 20
0.0
 30
0.0
  3
*D63
  1

  0
LINE
  5
42EC9
330
42D31
100
AcDbEntity
  8
寸法線
370
    -2
100
AcDbLine
 10
17019.13382849953
 20
2121.557545753201
 30
0.0
 11
17019.13382849953
 21
2348.648216754762
 31
0.0
  0
LINE
  5
42ECA
330
42D31
100
AcDbEntity
  8
寸法線
370
    -2
100
AcDbLine
 10
16469.13382849953
 20
2095.335828428313
 30
0.0
 11
16469.13382849953
 21
2348.648216754762
 31
0.0
  0
LINE
  5
42ECB
330
42D31
100
AcDbEntity
  8
寸法線
370
    -2
100
AcDbLine
 10
16994.13382849953
 20
2343.648216754762
 30
0.0
 11
16494.13382849953
 21
2343.648216754762
 31
0.0
  0
INSERT
  5
42ECC
330
42D31
100
AcDbEntity
  8
寸法線
370
    -2
100
AcDbBlockReference
  2
_Open30
 10
17019.13382849953
 20
2343.648216754762
 30
0.0
 41
25.0
 42
25.0
 43
25.0
  0
INSERT
  5
42ECD
330
42D31
100
AcDbEntity
  8
寸法線
370
    -2
100
AcDbBlockReference
  2
_Open30
 10
16469.13382849953
 20
2343.648216754762
 30
0.0
 41
25.0
 42
25.0
 43
25.0
 50
180.0
  0
MTEXT
  5
42ECE
330
42D31
100
AcDbEntity
  8
寸法線
100
AcDbMText
 10
16744.13382849953
 20
2366.148216754762
 30
0.0
 40
25.0
 41
0.0
 71
     5
 72
     1
  1
\A1;(550)
  7
Roman
 73
     1
 44
1.0
1001
ACAD
1000
MTEXTBEGIN
1070
    73
1070
     1
1070
    44
1040
1.0
1070
    74
1070
     0
1000
MTEXTEND
  0
POINT
  5
42ECF
330
42D31
100
AcDbEntity
  8
Defpoints
 62
     0
100
AcDbPoint
 10
17019.13382849953
 20
2116.557545753201
 30
0.0
  0
POINT
  5
42ED0
330
42D31
100
AcDbEntity
  8
Defpoints
 62
     0
100
AcDbPoint
 10
16469.13382849953
 20
2090.335828428314
 30
0.0
  0
POINT
  5
42ED1
330
42D31
100
AcDbEntity
  8
Defpoints
 62
     0
100
AcDbPoint
 10
16469.13382849953
 20
2343.648216754762
 30
0.0
  0
ENDBLK
  5
42D33
330
42D31
100
AcDbEntity
  8
0
100
AcDbBlockEnd
  0
BLOCK
  5
42D3E
330
42D3D
100
AcDbEntity
  8
0
100
AcDbBlockBegin
  2
*D64
 70
     1
 10
0.0
 20
0.0
 30
0.0
  3
*D64
  1

  0
LINE
  5
42ED2
330
42D3D
100
AcDbEntity
  8
寸法線
370
    -2
100
AcDbLine
 10
17419.13382849953
 20
2121.557545753201
 30
0.0
 11
17419.13382849953
 21
2348.648216754762
 31
0.0
  0
LINE
  5
42ED3
330
42D3D
100
AcDbEntity
  8
寸法線
370
    -2
100
AcDbLine
 10
17969.13382849953
 20
2088.560443792856
 30
0.0
 11
17969.13382849953
 21
2348.648216754762
 31
0.0
  0
LINE
  5
42ED4
330
42D3D
100
AcDbEntity
  8
寸法線
370
    -2
100
AcDbLine
 10
17444.13382849953
 20
2343.648216754762
 30
0.0
 11
17944.13382849953
 21
2343.648216754762
 31
0.0
  0
INSERT
  5
42ED5
330
42D3D
100
AcDbEntity
  8
寸法線
370
    -2
100
AcDbBlockReference
  2
_Open30
 10
17419.13382849953
 20
2343.648216754762
 30
0.0
 41
25.0
 42
25.0
 43
25.0
 50
180.0
  0
INSERT
  5
42ED6
330
42D3D
100
AcDbEntity
  8
寸法線
370
    -2
100
AcDbBlockReference
  2
_Open30
 10
17969.13382849953
 20
2343.648216754762
 30
0.0
 41
25.0
 42
25.0
 43
25.0
  0
MTEXT
  5
42ED7
330
42D3D
100
AcDbEntity
  8
寸法線
100
AcDbMText
 10
17694.13382849953
 20
2366.148216754762
 30
0.0
 40
25.0
 41
0.0
 71
     5
 72
     1
  1
\A1;(550)
  7
Roman
 73
     1
 44
1.0
1001
ACAD
1000
MTEXTBEGIN
1070
    73
1070
     1
1070
    44
1040
1.0
1070
    74
1070
     0
1000
MTEXTEND
  0
POINT
  5
42ED8
330
42D3D
100
AcDbEntity
  8
Defpoints
 62
     0
100
AcDbPoint
 10
17419.13382849953
 20
2116.557545753201
 30
0.0
  0
POINT
  5
42ED9
330
42D3D
100
AcDbEntity
  8
Defpoints
 62
     0
100
AcDbPoint
 10
17969.13382849953
 20
2083.560443792856
 30
0.0
  0
POINT
  5
42EDA
330
42D3D
100
AcDbEntity
  8
Defpoints
 62
     0
100
AcDbPoint
 10
17969.13382849953
 20
2343.648216754762
 30
0.0
  0
ENDBLK
  5
42D3F
330
42D3D
100
AcDbEntity
  8
0
100
AcDbBlockEnd
  0
BLOCK
  5
42D4A
330
42D49
100
AcDbEntity
  8
0
100
AcDbBlockBegin
  2
*D65
 70
     1
 10
0.0
 20
0.0
 30
0.0
  3
*D65
  1

  0
LINE
  5
42EDB
330
42D49
100
AcDbEntity
  8
寸法線
370
    -2
100
AcDbLine
 10
17962.9198551128
 20
2097.85280630968
 30
0.0
 11
18046.9260536714
 21
2097.85280630968
 31
0.0
  0
LINE
  5
42EDC
330
42D49
100
AcDbEntity
  8
寸法線
370
    -2
100
AcDbLine
 10
17962.57379464116
 20
1500.852806309682
 30
0.0
 11
18046.9260536714
 21
1500.852806309682
 31
0.0
  0
LINE
  5
42EDD
330
42D49
100
AcDbEntity
  8
寸法線
370
    -2
100
AcDbLine
 10
18041.9260536714
 20
2072.85280630968
 30
0.0
 11
18041.9260536714
 21
1525.852806309682
 31
0.0
  0
INSERT
  5
42EDE
330
42D49
100
AcDbEntity
  8
寸法線
370
    -2
100
AcDbBlockReference
  2
_Open30
 10
18041.9260536714
 20
2097.85280630968
 30
0.0
 41
25.0
 42
25.0
 43
25.0
 50
90.0
  0
INSERT
  5
42EDF
330
42D49
100
AcDbEntity
  8
寸法線
370
    -2
100
AcDbBlockReference
  2
_Open30
 10
18041.9260536714
 20
1500.852806309682
 30
0.0
 41
25.0
 42
25.0
 43
25.0
 50
270.0
  0
MTEXT
  5
42EE0
330
42D49
100
AcDbEntity
  8
寸法線
100
AcDbMText
 10
18019.4260536714
 20
1799.352806309683
 30
0.0
 40
25.0
 41
0.0
 71
     5
 72
     1
  1
\A1;600
  7
Roman
 11
0.0000000000000001
 21
1.0
 31
0.0
 73
     1
 44
1.0
1001
ACAD
1000
MTEXTBEGIN
1070
    73
1070
     1
1070
    44
1040
1.0
1070
    74
1070
     0
1000
MTEXTEND
  0
POINT
  5
42EE1
330
42D49
100
AcDbEntity
  8
Defpoints
 62
     0
100
AcDbPoint
 10
17957.9198551128
 20
2097.85280630968
 30
0.0
  0
POINT
  5
42EE2
330
42D49
100
AcDbEntity
  8
Defpoints
 62
     0
100
AcDbPoint
 10
17957.57379464116
 20
1500.852806309682
 30
0.0
  0
POINT
  5
42EE3
330
42D49
100
AcDbEntity
  8
Defpoints
 62
     0
100
AcDbPoint
 10
18041.9260536714
 20
1500.852806309682
 30
0.0
  0
ENDBLK
  5
42D4B
330
42D49
100
AcDbEntity
  8
0
100
AcDbBlockEnd
  0
BLOCK
  5
42D56
330
42D55
100
AcDbEntity
  8
0
100
AcDbBlockBegin
  2
*D66
 70
     1
 10
0.0
 20
0.0
 30
0.0
  3
*D66
  1

  0
LINE
  5
42EE4
330
42D55
100
AcDbEntity
  8
寸法線
370
    -2
100
AcDbLine
 10
17623.23380196831
 20
732.1934819447214
 30
0.0
 11
17623.23380196831
 21
552.4804186359342
 31
0.0
  0
LINE
  5
42EE5
330
42D55
100
AcDbEntity
  8
寸法線
370
    -2
100
AcDbLine
 10
16815.03383005708
 20
732.1934819447214
 30
0.0
 11
16815.03383005708
 21
552.4804186359342
 31
0.0
  0
LINE
  5
42EE6
330
42D55
100
AcDbEntity
  8
寸法線
370
    -2
100
AcDbLine
 10
17598.23380196831
 20
557.4804186359342
 30
0.0
 11
16840.03383005708
 21
557.4804186359342
 31
0.0
  0
INSERT
  5
42EE7
330
42D55
100
AcDbEntity
  8
寸法線
370
    -2
100
AcDbBlockReference
  2
_Open30
 10
17623.23380196831
 20
557.4804186359342
 30
0.0
 41
25.0
 42
25.0
 43
25.0
  0
INSERT
  5
42EE8
330
42D55
100
AcDbEntity
  8
寸法線
370
    -2
100
AcDbBlockReference
  2
_Open30
 10
16815.03383005708
 20
557.4804186359342
 30
0.0
 41
25.0
 42
25.0
 43
25.0
 50
180.0
  0
MTEXT
  5
42EE9
330
42D55
100
AcDbEntity
  8
寸法線
100
AcDbMText
 10
17219.1338160127
 20
579.9804186359343
 30
0.0
 40
25.0
 41
0.0
 71
     5
 72
     1
  1
\A1;808
  7
Roman
 73
     1
 44
1.0
1001
ACAD
1000
MTEXTBEGIN
1070
    73
1070
     1
1070
    44
1040
1.0
1070
    74
1070
     0
1000
MTEXTEND
  0
POINT
  5
42EEA
330
42D55
100
AcDbEntity
  8
Defpoints
 62
     0
100
AcDbPoint
 10
17623.23380196831
 20
737.1934819447215
 30
0.0
  0
POINT
  5
42EEB
330
42D55
100
AcDbEntity
  8
Defpoints
 62
     0
100
AcDbPoint
 10
16815.03383005708
 20
737.1934819447215
 30
0.0
  0
POINT
  5
42EEC
330
42D55
100
AcDbEntity
  8
Defpoints
 62
     0
100
AcDbPoint
 10
16815.03383005708
 20
557.4804186359342
 30
0.0
  0
ENDBLK
  5
42D57
330
42D55
100
AcDbEntity
  8
0
100
AcDbBlockEnd
  0
BLOCK
  5
42D62
330
42D61
100
AcDbEntity
  8
0
100
AcDbBlockBegin
  2
*D67
 70
     1
 10
0.0
 20
0.0
 30
0.0
  3
*D67
  1

  0
LINE
  5
42EED
330
42D61
100
AcDbEntity
  8
寸法線
370
    -2
100
AcDbLine
 10
18889.65409947766
 20
695.5261941564121
 30
0.0
 11
18889.65409947766
 21
505.7531908505734
 31
0.0
  0
LINE
  5
42EEE
330
42D61
100
AcDbEntity
  8
寸法線
370
    -2
100
AcDbLine
 10
18238.64936770796
 20
1175.889116770703
 30
0.0
 11
18238.64936770796
 21
505.7531908505734
 31
0.0
  0
LINE
  5
42EEF
330
42D61
100
AcDbEntity
  8
寸法線
370
    -2
100
AcDbLine
 10
18864.65409947766
 20
510.7531908505734
 30
0.0
 11
18263.64936770796
 21
510.7531908505734
 31
0.0
  0
INSERT
  5
42EF0
330
42D61
100
AcDbEntity
  8
寸法線
370
    -2
100
AcDbBlockReference
  2
_Open30
 10
18889.65409947766
 20
510.7531908505734
 30
0.0
 41
25.0
 42
25.0
 43
25.0
  0
INSERT
  5
42EF1
330
42D61
100
AcDbEntity
  8
寸法線
370
    -2
100
AcDbBlockReference
  2
_Open30
 10
18238.64936770796
 20
510.7531908505734
 30
0.0
 41
25.0
 42
25.0
 43
25.0
 50
180.0
  0
MTEXT
  5
42EF2
330
42D61
100
AcDbEntity
  8
寸法線
100
AcDbMText
 10
18564.15173359281
 20
533.2531908505734
 30
0.0
 40
25.0
 41
0.0
 71
     5
 72
     1
  1
\A1;650
  7
Roman
 73
     1
 44
1.0
1001
ACAD
1000
MTEXTBEGIN
1070
    73
1070
     1
1070
    44
1040
1.0
1070
    74
1070
     0
1000
MTEXTEND
  0
POINT
  5
42EF3
330
42D61
100
AcDbEntity
  8
Defpoints
 62
     0
100
AcDbPoint
 10
18889.65409947766
 20
700.5261941564121
 30
0.0
  0
POINT
  5
42EF4
330
42D61
100
AcDbEntity
  8
Defpoints
 62
     0
100
AcDbPoint
 10
18238.64936770796
 20
1180.889116770703
 30
0.0
  0
POINT
  5
42EF5
330
42D61
100
AcDbEntity
  8
Defpoints
 62
     0
100
AcDbPoint
 10
18238.64936770796
 20
510.7531908505734
 30
0.0
  0
ENDBLK
  5
42D63
330
42D61
100
AcDbEntity
  8
0
100
AcDbBlockEnd
  0
BLOCK
  5
42D6E
330
42D6D
100
AcDbEntity
  8
0
100
AcDbBlockBegin
  2
*D68
 70
     1
 10
0.0
 20
0.0
 30
0.0
  3
*D68
  1

  0
LINE
  5
42EF6
330
42D6D
100
AcDbEntity
  8
寸法線
370
    -2
100
AcDbLine
 10
18926.00395477218
 20
1641.958457755774
 30
0.0
 11
18926.00395477218
 21
1527.814971913252
 31
0.0
  0
LINE
  5
42EF7
330
42D6D
100
AcDbEntity
  8
寸法線
370
    -2
100
AcDbLine
 10
19268.67062143885
 20
1644.625115413308
 30
0.0
 11
19268.67062143885
 21
1527.814971913252
 31
0.0
  0
LINE
  5
42EF8
330
42D6D
100
AcDbEntity
  8
寸法線
370
    -2
100
AcDbLine
 10
18951.00395477219
 20
1532.814971913252
 30
0.0
 11
19243.67062143885
 21
1532.814971913252
 31
0.0
  0
INSERT
  5
42EF9
330
42D6D
100
AcDbEntity
  8
寸法線
370
    -2
100
AcDbBlockReference
  2
_Open30
 10
18926.00395477218
 20
1532.814971913252
 30
0.0
 41
25.0
 42
25.0
 43
25.0
 50
180.0
  0
INSERT
  5
42EFA
330
42D6D
100
AcDbEntity
  8
寸法線
370
    -2
100
AcDbBlockReference
  2
_Open30
 10
19268.67062143885
 20
1532.814971913252
 30
0.0
 41
25.0
 42
25.0
 43
25.0
  0
MTEXT
  5
42EFB
330
42D6D
100
AcDbEntity
  8
寸法線
100
AcDbMText
 10
19097.33728810552
 20
1555.314971913252
 30
0.0
 40
25.0
 41
0.0
 71
     5
 72
     1
  1
\A1;515
  7
Roman
 73
     1
 44
1.0
1001
ACAD
1000
MTEXTBEGIN
1070
    73
1070
     1
1070
    44
1040
1.0
1070
    74
1070
     0
1000
MTEXTEND
  0
POINT
  5
42EFC
330
42D6D
100
AcDbEntity
  8
Defpoints
 62
     0
100
AcDbPoint
 10
18926.00395477218
 20
1646.958457755774
 30
0.0
  0
POINT
  5
42EFD
330
42D6D
100
AcDbEntity
  8
Defpoints
 62
     0
100
AcDbPoint
 10
19268.67062143885
 20
1649.625115413309
 30
0.0
  0
POINT
  5
42EFE
330
42D6D
100
AcDbEntity
  8
Defpoints
 62
     0
100
AcDbPoint
 10
19268.67062143885
 20
1532.814971913252
 30
0.0
  0
ENDBLK
  5
42D6F
330
42D6D
100
AcDbEntity
  8
0
100
AcDbBlockEnd
  0
BLOCK
  5
42D7A
330
42D79
100
AcDbEntity
  8
0
100
AcDbBlockBegin
  2
*D69
 70
     1
 10
0.0
 20
0.0
 30
0.0
  3
*D69
  1

  0
LINE
  5
42EFF
330
42D79
100
AcDbEntity
  8
寸法線
370
    -2
100
AcDbLine
 10
17973.53248397819
 20
1200.726185421782
 30
0.0
 11
18108.11458838648
 21
1200.726185421782
 31
0.0
  0
LINE
  5
42F00
330
42D79
100
AcDbEntity
  8
寸法線
370
    -2
100
AcDbLine
 10
18038.62420840541
 20
700.5261941564121
 30
0.0
 11
18108.11458838648
 21
700.5261941564121
 31
0.0
  0
LINE
  5
42F01
330
42D79
100
AcDbEntity
  8
寸法線
370
    -2
100
AcDbLine
 10
18103.11458838648
 20
1175.726185421782
 30
0.0
 11
18103.11458838648
 21
725.5261941564121
 31
0.0
  0
INSERT
  5
42F02
330
42D79
100
AcDbEntity
  8
寸法線
370
    -2
100
AcDbBlockReference
  2
_Open30
 10
18103.11458838648
 20
1200.726185421782
 30
0.0
 41
25.0
 42
25.0
 43
25.0
 50
90.0
  0
INSERT
  5
42F03
330
42D79
100
AcDbEntity
  8
寸法線
370
    -2
100
AcDbBlockReference
  2
_Open30
 10
18103.11458838648
 20
700.5261941564121
 30
0.0
 41
25.0
 42
25.0
 43
25.0
 50
270.0
  0
MTEXT
  5
42F04
330
42D79
100
AcDbEntity
  8
寸法線
100
AcDbMText
 10
18080.61458838648
 20
950.6261897891002
 30
0.0
 40
25.0
 41
0.0
 71
     5
 72
     1
  1
\A1;500
  7
Roman
 11
0.0000000000000001
 21
1.0
 31
0.0
 73
     1
 44
1.0
1001
ACAD
1000
MTEXTBEGIN
1070
    73
1070
     1
1070
    44
1040
1.0
1070
    74
1070
     0
1000
MTEXTEND
  0
POINT
  5
42F05
330
42D79
100
AcDbEntity
  8
Defpoints
 62
     0
100
AcDbPoint
 10
17968.53248397819
 20
1200.726185421782
 30
0.0
  0
POINT
  5
42F06
330
42D79
100
AcDbEntity
  8
Defpoints
 62
     0
100
AcDbPoint
 10
18033.62420840541
 20
700.5261941564121
 30
0.0
  0
POINT
  5
42F07
330
42D79
100
AcDbEntity
  8
Defpoints
 62
     0
100
AcDbPoint
 10
18103.11458838648
 20
700.5261941564121
 30
0.0
  0
ENDBLK
  5
42D7B
330
42D79
100
AcDbEntity
  8
0
100
AcDbBlockEnd
  0
BLOCK
  5
42D86
330
42D85
100
AcDbEntity
  8
0
100
AcDbBlockBegin
  2
*D70
 70
     1
 10
0.0
 20
0.0
 30
0.0
  3
*D70
  1

  0
LINE
  5
42F08
330
42D85
100
AcDbEntity
  8
寸法線
370
    -2
100
AcDbLine
 10
17968.60443511106
 20
1148.226185421782
 30
0.0
 11
18035.96917030664
 21
1148.226185421782
 31
0.0
  0
LINE
  5
42F09
330
42D85
100
AcDbEntity
  8
寸法線
370
    -2
100
AcDbLine
 10
17972.92545835835
 20
1200.726185421782
 30
0.0
 11
18035.96917030664
 21
1200.726185421782
 31
0.0
  0
LINE
  5
42F0A
330
42D85
100
AcDbEntity
  8
寸法線
370
    -2
100
AcDbLine
 10
18030.96917030664
 20
1225.726185421782
 30
0.0
 11
18030.96917030664
 21
1250.726185421782
 31
0.0
  0
LINE
  5
42F0B
330
42D85
100
AcDbEntity
  8
寸法線
370
    -2
100
AcDbLine
 10
18030.96917030664
 20
1123.226185421782
 30
0.0
 11
18030.96917030664
 21
1024.892852088447
 31
0.0
  0
LINE
  5
42F0C
330
42D85
100
AcDbEntity
  8
寸法線
370
    -2
100
AcDbLine
 10
18030.96917030664
 20
1200.726185421782
 30
0.0
 11
18030.96917030664
 21
1148.226185421782
 31
0.0
  0
INSERT
  5
42F0D
330
42D85
100
AcDbEntity
  8
寸法線
370
    -2
100
AcDbBlockReference
  2
_Open30
 10
18030.96917030664
 20
1200.726185421782
 30
0.0
 41
25.0
 42
25.0
 43
25.0
 50
270.0
  0
INSERT
  5
42F0E
330
42D85
100
AcDbEntity
  8
寸法線
370
    -2
100
AcDbBlockReference
  2
_Open30
 10
18030.96917030664
 20
1148.226185421782
 30
0.0
 41
25.0
 42
25.0
 43
25.0
 50
90.0
  0
MTEXT
  5
42F0F
330
42D85
100
AcDbEntity
  8
寸法線
100
AcDbMText
 10
18008.46917030664
 20
1051.559518755116
 30
0.0
 40
25.0
 41
0.0
 71
     5
 72
     1
  1
\A1;55
  7
Roman
 11
0.0000000000000001
 21
1.0
 31
0.0
 73
     1
 44
1.0
1001
ACAD
1000
MTEXTBEGIN
1070
    73
1070
     1
1070
    44
1040
1.0
1070
    74
1070
     0
1000
MTEXTEND
  0
POINT
  5
42F10
330
42D85
100
AcDbEntity
  8
Defpoints
 62
     0
100
AcDbPoint
 10
17963.60443511106
 20
1148.226185421782
 30
0.0
  0
POINT
  5
42F11
330
42D85
100
AcDbEntity
  8
Defpoints
 62
     0
100
AcDbPoint
 10
17967.92545835835
 20
1200.726185421782
 30
0.0
  0
POINT
  5
42F12
330
42D85
100
AcDbEntity
  8
Defpoints
 62
     0
100
AcDbPoint
 10
18030.96917030664
 20
1200.726185421782
 30
0.0
  0
ENDBLK
  5
42D87
330
42D85
100
AcDbEntity
  8
0
100
AcDbBlockEnd
  0
BLOCK
  5
42D94
330
42D93
100
AcDbEntity
  8
0
100
AcDbBlockBegin
  2
*D71
 70
     1
 10
0.0
 20
0.0
 30
0.0
  3
*D71
  1

  0
LINE
  5
42F13
330
42D93
100
AcDbEntity
  8
寸法線
370
    -2
100
AcDbLine
 10
19825.30521285706
 20
1644.625115413308
 30
0.0
 11
19825.30521285706
 21
1510.497039977084
 31
0.0
  0
LINE
  5
42F14
330
42D93
100
AcDbEntity
  8
寸法線
370
    -2
100
AcDbLine
 10
19931.96975993753
 20
1644.625115413308
 30
0.0
 11
19931.96975993753
 21
1510.497039977084
 31
0.0
  0
LINE
  5
42F15
330
42D93
100
AcDbEntity
  8
寸法線
370
    -2
100
AcDbLine
 10
19850.30521285706
 20
1515.497039977084
 30
0.0
 11
19906.96975993753
 21
1515.497039977084
 31
0.0
  0
INSERT
  5
42F16
330
42D93
100
AcDbEntity
  8
寸法線
370
    -2
100
AcDbBlockReference
  2
_Open30
 10
19825.30521285706
 20
1515.497039977084
 30
0.0
 41
25.0
 42
25.0
 43
25.0
 50
180.0
  0
INSERT
  5
42F17
330
42D93
100
AcDbEntity
  8
寸法線
370
    -2
100
AcDbBlockReference
  2
_Open30
 10
19931.96975993753
 20
1515.497039977084
 30
0.0
 41
25.0
 42
25.0
 43
25.0
  0
MTEXT
  5
42F18
330
42D93
100
AcDbEntity
  8
寸法線
100
AcDbMText
 10
19878.6374863973
 20
1537.997039977084
 30
0.0
 40
25.0
 41
0.0
 71
     5
 72
     1
  1
\A1;160
  7
Roman
 73
     1
 44
1.0
1001
ACAD
1000
MTEXTBEGIN
1070
    73
1070
     1
1070
    44
1040
1.0
1070
    74
1070
     0
1000
MTEXTEND
  0
POINT
  5
42F19
330
42D93
100
AcDbEntity
  8
Defpoints
 62
     0
100
AcDbPoint
 10
19825.30521285706
 20
1649.625115413309
 30
0.0
  0
POINT
  5
42F1A
330
42D93
100
AcDbEntity
  8
Defpoints
 62
     0
100
AcDbPoint
 10
19931.96975993753
 20
1649.625115413309
 30
0.0
  0
POINT
  5
42F1B
330
42D93
100
AcDbEntity
  8
Defpoints
 62
     0
100
AcDbPoint
 10
19931.96975993753
 20
1515.497039977084
 30
0.0
  0
ENDBLK
  5
42D95
330
42D93
100
AcDbEntity
  8
0
100
AcDbBlockEnd
  0
BLOCK
  5
42DA0
330
42D9F
100
AcDbEntity
  8
0
100
AcDbBlockBegin
  2
*D72
 70
     1
 10
0.0
 20
0.0
 30
0.0
  3
*D72
  1

  0
LINE
  5
42F1C
330
42D9F
100
AcDbEntity
  8
寸法線
370
    -2
100
AcDbLine
 10
18411.62659968694
 20
695.5261941564113
 30
0.0
 11
18411.62659968694
 21
555.472707549663
 31
0.0
  0
LINE
  5
42F1D
330
42D9F
100
AcDbEntity
  8
寸法線
370
    -2
100
AcDbLine
 10
18238.64936770796
 20
697.976194156412
 30
0.0
 11
18238.64936770796
 21
555.472707549663
 31
0.0
  0
LINE
  5
42F1E
330
42D9F
100
AcDbEntity
  8
寸法線
370
    -2
100
AcDbLine
 10
18386.62659968694
 20
560.472707549663
 30
0.0
 11
18263.64936770796
 21
560.472707549663
 31
0.0
  0
INSERT
  5
42F1F
330
42D9F
100
AcDbEntity
  8
寸法線
370
    -2
100
AcDbBlockReference
  2
_Open30
 10
18411.62659968694
 20
560.472707549663
 30
0.0
 41
25.0
 42
25.0
 43
25.0
  0
INSERT
  5
42F20
330
42D9F
100
AcDbEntity
  8
寸法線
370
    -2
100
AcDbBlockReference
  2
_Open30
 10
18238.64936770796
 20
560.472707549663
 30
0.0
 41
25.0
 42
25.0
 43
25.0
 50
180.0
  0
MTEXT
  5
42F21
330
42D9F
100
AcDbEntity
  8
寸法線
100
AcDbMText
 10
18325.13798369745
 20
582.972707549663
 30
0.0
 40
25.0
 41
0.0
 71
     5
 72
     1
  1
\A1;175
  7
Roman
 73
     1
 44
1.0
1001
ACAD
1000
MTEXTBEGIN
1070
    73
1070
     1
1070
    44
1040
1.0
1070
    74
1070
     0
1000
MTEXTEND
  0
POINT
  5
42F22
330
42D9F
100
AcDbEntity
  8
Defpoints
 62
     0
100
AcDbPoint
 10
18411.62659968694
 20
700.5261941564112
 30
0.0
  0
POINT
  5
42F23
330
42D9F
100
AcDbEntity
  8
Defpoints
 62
     0
100
AcDbPoint
 10
18238.64936770796
 20
702.976194156412
 30
0.0
  0
POINT
  5
42F24
330
42D9F
100
AcDbEntity
  8
Defpoints
 62
     0
100
AcDbPoint
 10
18238.64936770796
 20
560.472707549663
 30
0.0
  0
ENDBLK
  5
42DA1
330
42D9F
100
AcDbEntity
  8
0
100
AcDbBlockEnd
  0
BLOCK
  5
42DAC
330
42DAB
100
AcDbEntity
  8
0
100
AcDbBlockBegin
  2
*D73
 70
     1
 10
0.0
 20
0.0
 30
0.0
  3
*D73
  1

  0
LINE
  5
42F25
330
42DAB
100
AcDbEntity
  8
寸法線
370
    -2
100
AcDbLine
 10
16958.13381634018
 20
2148.852809170779
 30
0.0
 11
16865.33476971906
 21
2148.852809170779
 31
0.0
  0
LINE
  5
42F26
330
42DAB
100
AcDbEntity
  8
寸法線
370
    -2
100
AcDbLine
 10
17005.13382849953
 20
2103.352809170779
 30
0.0
 11
16865.33476971906
 21
2103.352809170779
 31
0.0
  0
LINE
  5
42F27
330
42DAB
100
AcDbEntity
  8
寸法線
370
    -2
100
AcDbLine
 10
16870.33476971906
 20
2078.352809170779
 30
0.0
 11
16870.33476971906
 21
2053.35280917078
 31
0.0
  0
LINE
  5
42F28
330
42DAB
100
AcDbEntity
  8
寸法線
370
    -2
100
AcDbLine
 10
16870.33476971906
 20
2173.85280917078
 30
0.0
 11
16870.33476971906
 21
2318.666772299093
 31
0.0
  0
LINE
  5
42F29
330
42DAB
100
AcDbEntity
  8
寸法線
370
    -2
100
AcDbLine
 10
16870.33476971906
 20
2103.352809170779
 30
0.0
 11
16870.33476971906
 21
2148.852809170779
 31
0.0
  0
INSERT
  5
42F2A
330
42DAB
100
AcDbEntity
  8
寸法線
370
    -2
100
AcDbBlockReference
  2
_Open30
 10
16870.33476971906
 20
2103.352809170779
 30
0.0
 41
25.0
 42
25.0
 43
25.0
 50
90.0
  0
INSERT
  5
42F2B
330
42DAB
100
AcDbEntity
  8
寸法線
370
    -2
100
AcDbBlockReference
  2
_Open30
 10
16870.33476971906
 20
2148.852809170779
 30
0.0
 41
25.0
 42
25.0
 43
25.0
 50
270.0
  0
MTEXT
  5
42F2C
330
42DAB
100
AcDbEntity
  8
寸法線
100
AcDbMText
 10
16847.83476971906
 20
2292.000105632429
 30
0.0
 40
25.0
 41
0.0
 71
     5
 72
     1
  1
\A1;45
  7
Roman
 11
0.0000000000000001
 21
1.0
 31
0.0
 73
     1
 44
1.0
1001
ACAD
1000
MTEXTBEGIN
1070
    73
1070
     1
1070
    44
1040
1.0
1070
    74
1070
     0
1000
MTEXTEND
  0
POINT
  5
42F2D
330
42DAB
100
AcDbEntity
  8
Defpoints
 62
     0
100
AcDbPoint
 10
16963.13381634018
 20
2148.852809170779
 30
0.0
  0
POINT
  5
42F2E
330
42DAB
100
AcDbEntity
  8
Defpoints
 62
     0
100
AcDbPoint
 10
17010.13382849953
 20
2103.352809170779
 30
0.0
  0
POINT
  5
42F2F
330
42DAB
100
AcDbEntity
  8
Defpoints
 62
     0
100
AcDbPoint
 10
16870.33476971906
 20
2103.352809170779
 30
0.0
  0
ENDBLK
  5
42DAD
330
42DAB
100
AcDbEntity
  8
0
100
AcDbBlockEnd
  0
BLOCK
  5
42DBA
330
42DB9
100
AcDbEntity
  8
0
100
AcDbBlockBegin
  2
*D74
 70
     1
 10
0.0
 20
0.0
 30
0.0
  3
*D74
  1

  0
LINE
  5
42F30
330
42DB9
100
AcDbEntity
  8
寸法線
370
    -2
100
AcDbLine
 10
17005.13382849953
 20
2103.352809170779
 30
0.0
 11
16865.33476971906
 21
2103.352809170779
 31
0.0
  0
LINE
  5
42F31
330
42DB9
100
AcDbEntity
  8
寸法線
370
    -2
100
AcDbLine
 10
17005.13382849953
 20
2023.352809170781
 30
0.0
 11
16865.33476971906
 21
2023.352809170781
 31
0.0
  0
LINE
  5
42F32
330
42DB9
100
AcDbEntity
  8
寸法線
370
    -2
100
AcDbLine
 10
16870.33476971906
 20
2078.352809170779
 30
0.0
 11
16870.33476971906
 21
2048.35280917078
 31
0.0
  0
INSERT
  5
42F33
330
42DB9
100
AcDbEntity
  8
寸法線
370
    -2
100
AcDbBlockReference
  2
_Open30
 10
16870.33476971906
 20
2103.352809170779
 30
0.0
 41
25.0
 42
25.0
 43
25.0
 50
90.0
  0
INSERT
  5
42F34
330
42DB9
100
AcDbEntity
  8
寸法線
370
    -2
100
AcDbBlockReference
  2
_Open30
 10
16870.33476971906
 20
2023.352809170781
 30
0.0
 41
25.0
 42
25.0
 43
25.0
 50
270.0
  0
MTEXT
  5
42F35
330
42DB9
100
AcDbEntity
  8
寸法線
100
AcDbMText
 10
16847.83476971906
 20
2063.352809170783
 30
0.0
 40
25.0
 41
0.0
 71
     5
 72
     1
  1
\A1;80
  7
Roman
 11
0.0000000000000001
 21
1.0
 31
0.0
 73
     1
 44
1.0
1001
ACAD
1000
MTEXTBEGIN
1070
    73
1070
     1
1070
    44
1040
1.0
1070
    74
1070
     0
1000
MTEXTEND
  0
POINT
  5
42F36
330
42DB9
100
AcDbEntity
  8
Defpoints
 62
     0
100
AcDbPoint
 10
17010.13382849953
 20
2103.352809170779
 30
0.0
  0
POINT
  5
42F37
330
42DB9
100
AcDbEntity
  8
Defpoints
 62
     0
100
AcDbPoint
 10
17010.13382849953
 20
2023.352809170781
 30
0.0
  0
POINT
  5
42F38
330
42DB9
100
AcDbEntity
  8
Defpoints
 62
     0
100
AcDbPoint
 10
16870.33476971906
 20
2023.352809170781
 30
0.0
  0
ENDBLK
  5
42DBB
330
42DB9
100
AcDbEntity
  8
0
100
AcDbBlockEnd
  0
BLOCK
  5
42DC6
330
42DC5
100
AcDbEntity
  8
0
100
AcDbBlockBegin
  2
*D75
 70
     1
 10
0.0
 20
0.0
 30
0.0
  3
*D75
  1

  0
LINE
  5
42F39
330
42DC5
100
AcDbEntity
  8
寸法線
370
    -2
100
AcDbLine
 10
16469.13382849953
 20
1501.144209792816
 30
0.0
 11
16469.13382849953
 21
1427.899877877035
 31
0.0
  0
LINE
  5
42F3A
330
42DC5
100
AcDbEntity
  8
寸法線
370
    -2
100
AcDbLine
 10
17969.13382849953
 20
1506.045635617222
 30
0.0
 11
17969.13382849953
 21
1427.899877877035
 31
0.0
  0
LINE
  5
42F3B
330
42DC5
100
AcDbEntity
  8
寸法線
370
    -2
100
AcDbLine
 10
16494.13382849953
 20
1432.899877877034
 30
0.0
 11
17944.13382849953
 21
1432.899877877034
 31
0.0
  0
INSERT
  5
42F3C
330
42DC5
100
AcDbEntity
  8
寸法線
370
    -2
100
AcDbBlockReference
  2
_Open30
 10
16469.13382849953
 20
1432.899877877034
 30
0.0
 41
25.0
 42
25.0
 43
25.0
 50
180.0
  0
INSERT
  5
42F3D
330
42DC5
100
AcDbEntity
  8
寸法線
370
    -2
100
AcDbBlockReference
  2
_Open30
 10
17969.13382849953
 20
1432.899877877034
 30
0.0
 41
25.0
 42
25.0
 43
25.0
  0
MTEXT
  5
42F3E
330
42DC5
100
AcDbEntity
  8
寸法線
100
AcDbMText
 10
17219.13382849953
 20
1455.399877877035
 30
0.0
 40
25.0
 41
0.0
 71
     5
 72
     1
  1
\A1;1500
  7
Roman
 73
     1
 44
1.0
1001
ACAD
1000
MTEXTBEGIN
1070
    73
1070
     1
1070
    44
1040
1.0
1070
    74
1070
     0
1000
MTEXTEND
  0
POINT
  5
42F3F
330
42DC5
100
AcDbEntity
  8
Defpoints
 62
     0
100
AcDbPoint
 10
16469.13382849953
 20
1506.144209792816
 30
0.0
  0
POINT
  5
42F40
330
42DC5
100
AcDbEntity
  8
Defpoints
 62
     0
100
AcDbPoint
 10
17969.13382849953
 20
1511.045635617222
 30
0.0
  0
POINT
  5
42F41
330
42DC5
100
AcDbEntity
  8
Defpoints
 62
     0
100
AcDbPoint
 10
17969.13382849953
 20
1432.899877877034
 30
0.0
  0
ENDBLK
  5
42DC7
330
42DC5
100
AcDbEntity
  8
0
100
AcDbBlockEnd
  0
BLOCK
  5
42DD2
330
42DD1
100
AcDbEntity
  8
0
100
AcDbBlockBegin
  2
*D76
 70
     1
 10
0.0
 20
0.0
 30
0.0
  3
*D76
  1

  0
LINE
  5
42F42
330
42DD1
100
AcDbEntity
  8
寸法線
370
    -2
100
AcDbLine
 10
18884.65409947766
 20
700.5261929636035
 30
0.0
 11
18629.82351059346
 21
700.5261929636036
 31
0.0
  0
LINE
  5
42F43
330
42DD1
100
AcDbEntity
  8
寸法線
370
    -2
100
AcDbLine
 10
18720.15410506865
 20
994.726194444207
 30
0.0
 11
18629.82351059346
 21
994.7261944442072
 31
0.0
  0
LINE
  5
42F44
330
42DD1
100
AcDbEntity
  8
寸法線
370
    -2
100
AcDbLine
 10
18634.82351059346
 20
725.5261929636036
 30
0.0
 11
18634.82351059346
 21
969.7261944442072
 31
0.0
  0
INSERT
  5
42F45
330
42DD1
100
AcDbEntity
  8
寸法線
370
    -2
100
AcDbBlockReference
  2
_Open30
 10
18634.82351059346
 20
700.5261929636036
 30
0.0
 41
25.0
 42
25.0
 43
25.0
 50
270.0
  0
INSERT
  5
42F46
330
42DD1
100
AcDbEntity
  8
寸法線
370
    -2
100
AcDbBlockReference
  2
_Open30
 10
18634.82351059346
 20
994.7261944442072
 30
0.0
 41
25.0
 42
25.0
 43
25.0
 50
90.0
  0
MTEXT
  5
42F47
330
42DD1
100
AcDbEntity
  8
寸法線
100
AcDbMText
 10
18612.32351059346
 20
847.6261937039083
 30
0.0
 40
25.0
 41
0.0
 71
     5
 72
     1
  1
\A1;295
  7
Roman
 11
0.0000000000000001
 21
1.0
 31
0.0
 73
     1
 44
1.0
1001
ACAD
1000
MTEXTBEGIN
1070
    73
1070
     1
1070
    44
1040
1.0
1070
    74
1070
     0
1000
MTEXTEND
  0
POINT
  5
42F48
330
42DD1
100
AcDbEntity
  8
Defpoints
 62
     0
100
AcDbPoint
 10
18889.65409947766
 20
700.5261929636035
 30
0.0
  0
POINT
  5
42F49
330
42DD1
100
AcDbEntity
  8
Defpoints
 62
     0
100
AcDbPoint
 10
18725.15410506865
 20
994.726194444207
 30
0.0
  0
POINT
  5
42F4A
330
42DD1
100
AcDbEntity
  8
Defpoints
 62
     0
100
AcDbPoint
 10
18634.82351059346
 20
994.7261944442072
 30
0.0
  0
ENDBLK
  5
42DD3
330
42DD1
100
AcDbEntity
  8
0
100
AcDbBlockEnd
  0
BLOCK
  5
42DDE
330
42DDD
100
AcDbEntity
  8
0
100
AcDbBlockBegin
  2
*D77
 70
     1
 10
0.0
 20
0.0
 30
0.0
  3
*D77
  1

  0
LINE
  5
42F4B
330
42DDD
100
AcDbEntity
  8
寸法線
370
    -2
100
AcDbLine
 10
19598.27012263718
 20
2306.763369663273
 30
0.0
 11
19690.34229568462
 21
2306.763369663273
 31
0.0
  0
LINE
  5
42F4C
330
42DDD
100
AcDbEntity
  8
寸法線
370
    -2
100
AcDbLine
 10
19625.73730691369
 20
1648.625115413304
 30
0.0
 11
19690.34229568462
 21
1648.625115413304
 31
0.0
  0
LINE
  5
42F4D
330
42DDD
100
AcDbEntity
  8
寸法線
370
    -2
100
AcDbLine
 10
19685.34229568462
 20
2281.763369663273
 30
0.0
 11
19685.34229568462
 21
1673.625115413304
 31
0.0
  0
INSERT
  5
42F4E
330
42DDD
100
AcDbEntity
  8
寸法線
370
    -2
100
AcDbBlockReference
  2
_Open30
 10
19685.34229568462
 20
2306.763369663273
 30
0.0
 41
25.0
 42
25.0
 43
25.0
 50
90.0
  0
INSERT
  5
42F4F
330
42DDD
100
AcDbEntity
  8
寸法線
370
    -2
100
AcDbBlockReference
  2
_Open30
 10
19685.34229568462
 20
1648.625115413304
 30
0.0
 41
25.0
 42
25.0
 43
25.0
 50
270.0
  0
MTEXT
  5
42F50
330
42DDD
100
AcDbEntity
  8
寸法線
100
AcDbMText
 10
19662.84229568462
 20
1977.694242538292
 30
0.0
 40
25.0
 41
0.0
 71
     5
 72
     1
  1
\A1;990
  7
Roman
 11
0.0000000000000001
 21
1.0
 31
0.0
 73
     1
 44
1.0
1001
ACAD
1000
MTEXTBEGIN
1070
    73
1070
     1
1070
    44
1040
1.0
1070
    74
1070
     0
1000
MTEXTEND
  0
POINT
  5
42F51
330
42DDD
100
AcDbEntity
  8
Defpoints
 62
     0
100
AcDbPoint
 10
19593.27012263718
 20
2306.763369663273
 30
0.0
  0
POINT
  5
42F52
330
42DDD
100
AcDbEntity
  8
Defpoints
 62
     0
100
AcDbPoint
 10
19620.73730691369
 20
1648.625115413304
 30
0.0
  0
POINT
  5
42F53
330
42DDD
100
AcDbEntity
  8
Defpoints
 62
     0
100
AcDbPoint
 10
19685.34229568462
 20
1648.625115413304
 30
0.0
  0
ENDBLK
  5
42DDF
330
42DDD
100
AcDbEntity
  8
0
100
AcDbBlockEnd
  0
BLOCK
  5
42DEA
330
42DE9
100
AcDbEntity
  8
0
100
AcDbBlockBegin
  2
*D78
 70
     1
 10
0.0
 20
0.0
 30
0.0
  3
*D78
  1

  0
LINE
  5
42F54
330
42DE9
100
AcDbEntity
  8
寸法線
370
    -2
100
AcDbLine
 10
16980.58382849958
 20
1289.206797669678
 30
0.0
 11
16980.58382849958
 21
1355.893094237837
 31
0.0
  0
LINE
  5
42F55
330
42DE9
100
AcDbEntity
  8
寸法線
370
    -2
100
AcDbLine
 10
17457.68382849958
 20
1298.671926783867
 30
0.0
 11
17457.68382849958
 21
1355.893094237837
 31
0.0
  0
LINE
  5
42F56
330
42DE9
100
AcDbEntity
  8
寸法線
370
    -2
100
AcDbLine
 10
17005.58382849958
 20
1350.893094237837
 30
0.0
 11
17432.68382849958
 21
1350.893094237837
 31
0.0
  0
INSERT
  5
42F57
330
42DE9
100
AcDbEntity
  8
寸法線
370
    -2
100
AcDbBlockReference
  2
_Open30
 10
16980.58382849958
 20
1350.893094237837
 30
0.0
 41
25.0
 42
25.0
 43
25.0
 50
180.0
  0
INSERT
  5
42F58
330
42DE9
100
AcDbEntity
  8
寸法線
370
    -2
100
AcDbBlockReference
  2
_Open30
 10
17457.68382849958
 20
1350.893094237837
 30
0.0
 41
25.0
 42
25.0
 43
25.0
  0
MTEXT
  5
42F59
330
42DE9
100
AcDbEntity
  8
寸法線
100
AcDbMText
 10
17219.13382849958
 20
1373.393094237837
 30
0.0
 40
25.0
 41
0.0
 71
     5
 72
     1
  1
\A1;480
  7
Roman
 73
     1
 44
1.0
1001
ACAD
1000
MTEXTBEGIN
1070
    73
1070
     1
1070
    44
1040
1.0
1070
    74
1070
     0
1000
MTEXTEND
  0
POINT
  5
42F5A
330
42DE9
100
AcDbEntity
  8
Defpoints
 62
     0
100
AcDbPoint
 10
16980.58382849958
 20
1284.206797669678
 30
0.0
  0
POINT
  5
42F5B
330
42DE9
100
AcDbEntity
  8
Defpoints
 62
     0
100
AcDbPoint
 10
17457.68382849958
 20
1293.671926783867
 30
0.0
  0
POINT
  5
42F5C
330
42DE9
100
AcDbEntity
  8
Defpoints
 62
     0
100
AcDbPoint
 10
17457.68382849958
 20
1350.893094237837
 30
0.0
  0
ENDBLK
  5
42DEB
330
42DE9
100
AcDbEntity
  8
0
100
AcDbBlockEnd
  0
BLOCK
  5
42DF6
330
42DF5
100
AcDbEntity
  8
0
100
AcDbBlockBegin
  2
*D79
 70
     1
 10
0.0
 20
0.0
 30
0.0
  3
*D79
  1

  0
LINE
  5
42F5D
330
42DF5
100
AcDbEntity
  8
寸法線
370
    -2
100
AcDbLine
 10
17438.02735137492
 20
1320.665631108952
 30
0.0
 11
17581.70775041482
 21
1320.665631108952
 31
0.0
  0
LINE
  5
42F5E
330
42DF5
100
AcDbEntity
  8
寸法線
370
    -2
100
AcDbLine
 10
17500.8457894572
 20
1200.726185421781
 30
0.0
 11
17581.70775041482
 21
1200.726185421781
 31
0.0
  0
LINE
  5
42F5F
330
42DF5
100
AcDbEntity
  8
寸法線
370
    -2
100
AcDbLine
 10
17576.70775041482
 20
1295.665631108952
 30
0.0
 11
17576.70775041482
 21
1225.726185421781
 31
0.0
  0
INSERT
  5
42F60
330
42DF5
100
AcDbEntity
  8
寸法線
370
    -2
100
AcDbBlockReference
  2
_Open30
 10
17576.70775041482
 20
1320.665631108952
 30
0.0
 41
25.0
 42
25.0
 43
25.0
 50
90.0
  0
INSERT
  5
42F61
330
42DF5
100
AcDbEntity
  8
寸法線
370
    -2
100
AcDbBlockReference
  2
_Open30
 10
17576.70775041482
 20
1200.726185421781
 30
0.0
 41
25.0
 42
25.0
 43
25.0
 50
270.0
  0
MTEXT
  5
42F62
330
42DF5
100
AcDbEntity
  8
寸法線
100
AcDbMText
 10
17554.20775041482
 20
1260.695908265369
 30
0.0
 40
25.0
 41
0.0
 71
     5
 72
     1
  1
\A1;120
  7
Roman
 11
0.0000000000000001
 21
1.0
 31
0.0
 73
     1
 44
1.0
1001
ACAD
1000
MTEXTBEGIN
1070
    73
1070
     1
1070
    44
1040
1.0
1070
    74
1070
     0
1000
MTEXTEND
  0
POINT
  5
42F63
330
42DF5
100
AcDbEntity
  8
Defpoints
 62
     0
100
AcDbPoint
 10
17433.02735137492
 20
1320.665631108952
 30
0.0
  0
POINT
  5
42F64
330
42DF5
100
AcDbEntity
  8
Defpoints
 62
     0
100
AcDbPoint
 10
17495.8457894572
 20
1200.726185421781
 30
0.0
  0
POINT
  5
42F65
330
42DF5
100
AcDbEntity
  8
Defpoints
 62
     0
100
AcDbPoint
 10
17576.70775041482
 20
1200.726185421781
 30
0.0
  0
ENDBLK
  5
42DF7
330
42DF5
100
AcDbEntity
  8
0
100
AcDbBlockEnd
  0
BLOCK
  5
42E02
330
42E01
100
AcDbEntity
  8
0
100
AcDbBlockBegin
  2
*D80
 70
     1
 10
0.0
 20
0.0
 30
0.0
  3
*D80
  1

  0
LINE
  5
42F66
330
42E01
100
AcDbEntity
  8
寸法線
370
    -2
100
AcDbLine
 10
17013.79283651086
 20
1320.665631108952
 30
0.0
 11
16909.964538329
 21
1320.665631108952
 31
0.0
  0
LINE
  5
42F67
330
42E01
100
AcDbEntity
  8
寸法線
370
    -2
100
AcDbLine
 10
17005.59916803364
 20
1295.265631108952
 30
0.0
 11
16909.964538329
 21
1295.265631108952
 31
0.0
  0
LINE
  5
42F68
330
42E01
100
AcDbEntity
  8
寸法線
370
    -2
100
AcDbLine
 10
16914.964538329
 20
1345.665631108952
 30
0.0
 11
16914.964538329
 21
1370.665631108952
 31
0.0
  0
LINE
  5
42F69
330
42E01
100
AcDbEntity
  8
寸法線
370
    -2
100
AcDbLine
 10
16914.964538329
 20
1270.265631108952
 30
0.0
 11
16914.964538329
 21
1245.265631108952
 31
0.0
  0
LINE
  5
42F6A
330
42E01
100
AcDbEntity
  8
寸法線
370
    -2
100
AcDbLine
 10
16914.964538329
 20
1320.665631108952
 30
0.0
 11
16914.964538329
 21
1295.265631108952
 31
0.0
  0
INSERT
  5
42F6B
330
42E01
100
AcDbEntity
  8
寸法線
370
    -2
100
AcDbBlockReference
  2
_Open30
 10
16914.964538329
 20
1320.665631108952
 30
0.0
 41
25.0
 42
25.0
 43
25.0
 50
270.0
  0
INSERT
  5
42F6C
330
42E01
100
AcDbEntity
  8
寸法線
370
    -2
100
AcDbBlockReference
  2
_Open30
 10
16914.964538329
 20
1295.265631108952
 30
0.0
 41
25.0
 42
25.0
 43
25.0
 50
90.0
  0
MTEXT
  5
42F6D
330
42E01
100
AcDbEntity
  8
寸法線
100
AcDbMText
 10
16892.464538329
 20
1307.965631108955
 30
0.0
 40
25.0
 41
0.0
 71
     5
 72
     1
  1
\A1;φ25
  7
Roman
 11
0.0000000000000001
 21
1.0
 31
0.0
 73
     1
 44
1.0
1001
ACAD
1000
MTEXTBEGIN
1070
    73
1070
     1
1070
    44
1040
1.0
1070
    74
1070
     0
1000
MTEXTEND
  0
POINT
  5
42F6E
330
42E01
100
AcDbEntity
  8
Defpoints
 62
     0
100
AcDbPoint
 10
17018.79283651086
 20
1320.665631108952
 30
0.0
  0
POINT
  5
42F6F
330
42E01
100
AcDbEntity
  8
Defpoints
 62
     0
100
AcDbPoint
 10
17010.59916803364
 20
1295.265631108952
 30
0.0
  0
POINT
  5
42F70
330
42E01
100
AcDbEntity
  8
Defpoints
 62
     0
100
AcDbPoint
 10
16914.964538329
 20
1295.265631108952
 30
0.0
  0
ENDBLK
  5
42E03
330
42E01
100
AcDbEntity
  8
0
100
AcDbBlockEnd
  0
BLOCK
  5
42E10
330
42E0F
100
AcDbEntity
  8
0
100
AcDbBlockBegin
  2
*D81
 70
     1
 10
0.0
 20
0.0
 30
0.0
  3
*D81
  1

  0
LINE
  5
42F71
330
42E0F
100
AcDbEntity
  8
寸法線
370
    -2
100
AcDbLine
 10
19651.69356953466
 20
847.7261929636034
 30
0.0
 11
19651.69356953466
 21
577.1811956596121
 31
0.0
  0
LINE
  5
42F72
330
42E0F
100
AcDbEntity
  8
寸法線
370
    -2
100
AcDbLine
 10
20051.69356050148
 20
837.3345944773827
 30
0.0
 11
20051.69356050148
 21
577.1811956596121
 31
0.0
  0
LINE
  5
42F73
330
42E0F
100
AcDbEntity
  8
寸法線
370
    -2
100
AcDbLine
 10
19676.69356953466
 20
582.181195659612
 30
0.0
 11
20026.69356050148
 21
582.181195659612
 31
0.0
  0
INSERT
  5
42F74
330
42E0F
100
AcDbEntity
  8
寸法線
370
    -2
100
AcDbBlockReference
  2
_Open30
 10
19651.69356953466
 20
582.181195659612
 30
0.0
 41
25.0
 42
25.0
 43
25.0
 50
180.0
  0
INSERT
  5
42F75
330
42E0F
100
AcDbEntity
  8
寸法線
370
    -2
100
AcDbBlockReference
  2
_Open30
 10
20051.69356050148
 20
582.181195659612
 30
0.0
 41
25.0
 42
25.0
 43
25.0
  0
MTEXT
  5
42F76
330
42E0F
100
AcDbEntity
  8
寸法線
100
AcDbMText
 10
19851.69356501807
 20
604.681195659612
 30
0.0
 40
25.0
 41
0.0
 71
     5
 72
     1
  1
\A1;400
  7
Roman
 73
     1
 44
1.0
1001
ACAD
1000
MTEXTBEGIN
1070
    73
1070
     1
1070
    44
1040
1.0
1070
    74
1070
     0
1000
MTEXTEND
  0
POINT
  5
42F77
330
42E0F
100
AcDbEntity
  8
Defpoints
 62
     0
100
AcDbPoint
 10
19651.69356953466
 20
852.7261929636033
 30
0.0
  0
POINT
  5
42F78
330
42E0F
100
AcDbEntity
  8
Defpoints
 62
     0
100
AcDbPoint
 10
20051.69356050148
 20
842.3345944773828
 30
0.0
  0
POINT
  5
42F79
330
42E0F
100
AcDbEntity
  8
Defpoints
 62
     0
100
AcDbPoint
 10
20051.69356050148
 20
582.181195659612
 30
0.0
  0
ENDBLK
  5
42E11
330
42E0F
100
AcDbEntity
  8
0
100
AcDbBlockEnd
  0
BLOCK
  5
42E1C
330
42E1B
100
AcDbEntity
  8
0
100
AcDbBlockBegin
  2
*D82
 70
     1
 10
0.0
 20
0.0
 30
0.0
  3
*D82
  1

  0
LINE
  5
42F7A
330
42E1B
100
AcDbEntity
  8
寸法線
370
    -2
100
AcDbLine
 10
19856.69356501807
 20
950.2261929636032
 30
0.0
 11
19997.47734413616
 21
950.2261929636032
 31
0.0
  0
LINE
  5
42F7B
330
42E1B
100
AcDbEntity
  8
寸法線
370
    -2
100
AcDbLine
 10
19856.69356501807
 20
870.2261929636033
 30
0.0
 11
19997.47734413616
 21
870.2261929636033
 31
0.0
  0
LINE
  5
42F7C
330
42E1B
100
AcDbEntity
  8
寸法線
370
    -2
100
AcDbLine
 10
19992.47734413616
 20
925.2261929636032
 30
0.0
 11
19992.47734413616
 21
895.2261929636033
 31
0.0
  0
INSERT
  5
42F7D
330
42E1B
100
AcDbEntity
  8
寸法線
370
    -2
100
AcDbBlockReference
  2
_Open30
 10
19992.47734413616
 20
950.2261929636032
 30
0.0
 41
25.0
 42
25.0
 43
25.0
 50
90.0
  0
INSERT
  5
42F7E
330
42E1B
100
AcDbEntity
  8
寸法線
370
    -2
100
AcDbBlockReference
  2
_Open30
 10
19992.47734413616
 20
870.2261929636033
 30
0.0
 41
25.0
 42
25.0
 43
25.0
 50
270.0
  0
MTEXT
  5
42F7F
330
42E1B
100
AcDbEntity
  8
寸法線
100
AcDbMText
 10
19969.97734413616
 20
910.2261929636066
 30
0.0
 40
25.0
 41
0.0
 71
     5
 72
     1
  1
\A1;80
  7
Roman
 11
0.0000000000000001
 21
1.0
 31
0.0
 73
     1
 44
1.0
1001
ACAD
1000
MTEXTBEGIN
1070
    73
1070
     1
1070
    44
1040
1.0
1070
    74
1070
     0
1000
MTEXTEND
  0
POINT
  5
42F80
330
42E1B
100
AcDbEntity
  8
Defpoints
 62
     0
100
AcDbPoint
 10
19851.69356501807
 20
950.2261929636032
 30
0.0
  0
POINT
  5
42F81
330
42E1B
100
AcDbEntity
  8
Defpoints
 62
     0
100
AcDbPoint
 10
19851.69356501807
 20
870.2261929636033
 30
0.0
  0
POINT
  5
42F82
330
42E1B
100
AcDbEntity
  8
Defpoints
 62
     0
100
AcDbPoint
 10
19992.47734413616
 20
870.2261929636033
 30
0.0
  0
ENDBLK
  5
42E1D
330
42E1B
100
AcDbEntity
  8
0
100
AcDbBlockEnd
  0
BLOCK
  5
42E28
330
42E27
100
AcDbEntity
  8
0
100
AcDbBlockBegin
  2
*D83
 70
     1
 10
0.0
 20
0.0
 30
0.0
  3
*D83
  1

  0
LINE
  5
42F83
330
42E27
100
AcDbEntity
  8
寸法線
370
    -2
100
AcDbLine
 10
19856.69356501807
 20
870.2261929636033
 30
0.0
 11
19997.47734413616
 21
870.2261929636033
 31
0.0
  0
LINE
  5
42F84
330
42E27
100
AcDbEntity
  8
寸法線
370
    -2
100
AcDbLine
 10
19856.69356501807
 20
699.0261929636026
 30
0.0
 11
19997.47734413616
 21
699.0261929636026
 31
0.0
  0
LINE
  5
42F85
330
42E27
100
AcDbEntity
  8
寸法線
370
    -2
100
AcDbLine
 10
19992.47734413616
 20
845.2261929636033
 30
0.0
 11
19992.47734413616
 21
724.0261929636026
 31
0.0
  0
INSERT
  5
42F86
330
42E27
100
AcDbEntity
  8
寸法線
370
    -2
100
AcDbBlockReference
  2
_Open30
 10
19992.47734413616
 20
870.2261929636033
 30
0.0
 41
25.0
 42
25.0
 43
25.0
 50
90.0
  0
INSERT
  5
42F87
330
42E27
100
AcDbEntity
  8
寸法線
370
    -2
100
AcDbBlockReference
  2
_Open30
 10
19992.47734413616
 20
699.0261929636026
 30
0.0
 41
25.0
 42
25.0
 43
25.0
 50
270.0
  0
MTEXT
  5
42F88
330
42E27
100
AcDbEntity
  8
寸法線
100
AcDbMText
 10
19969.97734413616
 20
784.6261929636061
 30
0.0
 40
25.0
 41
0.0
 71
     5
 72
     1
  1
\A1;170
  7
Roman
 11
0.0000000000000001
 21
1.0
 31
0.0
 73
     1
 44
1.0
1001
ACAD
1000
MTEXTBEGIN
1070
    73
1070
     1
1070
    44
1040
1.0
1070
    74
1070
     0
1000
MTEXTEND
  0
POINT
  5
42F89
330
42E27
100
AcDbEntity
  8
Defpoints
 62
     0
100
AcDbPoint
 10
19851.69356501807
 20
870.2261929636033
 30
0.0
  0
POINT
  5
42F8A
330
42E27
100
AcDbEntity
  8
Defpoints
 62
     0
100
AcDbPoint
 10
19851.69356501807
 20
699.0261929636026
 30
0.0
  0
POINT
  5
42F8B
330
42E27
100
AcDbEntity
  8
Defpoints
 62
     0
100
AcDbPoint
 10
19992.47734413616
 20
699.0261929636026
 30
0.0
  0
ENDBLK
  5
42E29
330
42E27
100
AcDbEntity
  8
0
100
AcDbBlockEnd
  0
BLOCK
  5
42E34
330
42E33
100
AcDbEntity
  8
0
100
AcDbBlockBegin
  2
*D84
 70
     1
 10
0.0
 20
0.0
 30
0.0
  3
*D84
  1

  0
LINE
  5
42F8C
330
42E33
100
AcDbEntity
  8
寸法線
370
    -2
100
AcDbLine
 10
17969.13382849953
 20
1503.724055734978
 30
0.0
 11
17969.13382849953
 21
1428.234814361903
 31
0.0
  0
LINE
  5
42F8D
330
42E33
100
AcDbEntity
  8
寸法線
370
    -2
100
AcDbLine
 10
18100.52000238868
 20
1439.858500427831
 30
0.0
 11
18100.52000238868
 21
1428.234814361903
 31
0.0
  0
LINE
  5
42F8E
330
42E33
100
AcDbEntity
  8
寸法線
370
    -2
100
AcDbLine
 10
17994.13382849953
 20
1433.234814361903
 30
0.0
 11
18075.52000238868
 21
1433.234814361903
 31
0.0
  0
INSERT
  5
42F8F
330
42E33
100
AcDbEntity
  8
寸法線
370
    -2
100
AcDbBlockReference
  2
_Open30
 10
17969.13382849953
 20
1433.234814361903
 30
0.0
 41
25.0
 42
25.0
 43
25.0
 50
180.0
  0
INSERT
  5
42F90
330
42E33
100
AcDbEntity
  8
寸法線
370
    -2
100
AcDbBlockReference
  2
_Open30
 10
18100.52000238868
 20
1433.234814361903
 30
0.0
 41
25.0
 42
25.0
 43
25.0
  0
MTEXT
  5
42F91
330
42E33
100
AcDbEntity
  8
寸法線
100
AcDbMText
 10
18034.82691544411
 20
1455.734814361903
 30
0.0
 40
25.0
 41
0.0
 71
     5
 72
     1
  1
\A1;※3
  7
Roman
 73
     1
 44
1.0
1001
ACAD
1000
MTEXTBEGIN
1070
    73
1070
     1
1070
    44
1040
1.0
1070
    74
1070
     0
1000
MTEXTEND
  0
POINT
  5
42F92
330
42E33
100
AcDbEntity
  8
Defpoints
 62
     0
100
AcDbPoint
 10
17969.13382849953
 20
1508.724055734978
 30
0.0
  0
POINT
  5
42F93
330
42E33
100
AcDbEntity
  8
Defpoints
 62
     0
100
AcDbPoint
 10
18100.52000238868
 20
1444.858500427831
 30
0.0
  0
POINT
  5
42F94
330
42E33
100
AcDbEntity
  8
Defpoints
 62
     0
100
AcDbPoint
 10
18100.52000238868
 20
1433.234814361903
 30
0.0
  0
ENDBLK
  5
42E35
330
42E33
100
AcDbEntity
  8
0
100
AcDbBlockEnd
  0
BLOCK
  5
42E40
330
42E3F
100
AcDbEntity
  8
0
100
AcDbBlockBegin
  2
*D85
 70
     1
 10
0.0
 20
0.0
 30
0.0
  3
*D85
  1

  0
LINE
  5
42F95
330
42E3F
100
AcDbEntity
  8
寸法線
370
    -2
100
AcDbLine
 10
17969.13382849953
 20
-2072.074479774965
 30
0.0
 11
17969.13382849953
 21
-2147.56372114804
 31
0.0
  0
LINE
  5
42F96
330
42E3F
100
AcDbEntity
  8
寸法線
370
    -2
100
AcDbLine
 10
18100.52000238868
 20
-2135.940035082112
 30
0.0
 11
18100.52000238868
 21
-2147.56372114804
 31
0.0
  0
LINE
  5
42F97
330
42E3F
100
AcDbEntity
  8
寸法線
370
    -2
100
AcDbLine
 10
17994.13382849953
 20
-2142.56372114804
 30
0.0
 11
18075.52000238868
 21
-2142.56372114804
 31
0.0
  0
INSERT
  5
42F98
330
42E3F
100
AcDbEntity
  8
寸法線
370
    -2
100
AcDbBlockReference
  2
_Open30
 10
17969.13382849953
 20
-2142.56372114804
 30
0.0
 41
25.0
 42
25.0
 43
25.0
 50
180.0
  0
INSERT
  5
42F99
330
42E3F
100
AcDbEntity
  8
寸法線
370
    -2
100
AcDbBlockReference
  2
_Open30
 10
18100.52000238868
 20
-2142.56372114804
 30
0.0
 41
25.0
 42
25.0
 43
25.0
  0
MTEXT
  5
42F9A
330
42E3F
100
AcDbEntity
  8
寸法線
100
AcDbMText
 10
18034.82691544411
 20
-2120.06372114804
 30
0.0
 40
25.0
 41
0.0
 71
     5
 72
     1
  1
\A1;※3
  7
Roman
 73
     1
 44
1.0
1001
ACAD
1000
MTEXTBEGIN
1070
    73
1070
     1
1070
    44
1040
1.0
1070
    74
1070
     0
1000
MTEXTEND
  0
POINT
  5
42F9B
330
42E3F
100
AcDbEntity
  8
Defpoints
 62
     0
100
AcDbPoint
 10
17969.13382849953
 20
-2067.074479774965
 30
0.0
  0
POINT
  5
42F9C
330
42E3F
100
AcDbEntity
  8
Defpoints
 62
     0
100
AcDbPoint
 10
18100.52000238868
 20
-2130.940035082112
 30
0.0
  0
POINT
  5
42F9D
330
42E3F
100
AcDbEntity
  8
Defpoints
 62
     0
100
AcDbPoint
 10
18100.52000238868
 20
-2142.56372114804
 30
0.0
  0
ENDBLK
  5
42E41
330
42E3F
100
AcDbEntity
  8
0
100
AcDbBlockEnd
  0
BLOCK
  5
42E4C
330
42E4B
100
AcDbEntity
  8
0
100
AcDbBlockBegin
  2
*D86
 70
     1
 10
0.0
 20
0.0
 30
0.0
  3
*D86
  1

  0
LINE
  5
42F9E
330
42E4B
100
AcDbEntity
  8
寸法線
370
    -2
100
AcDbLine
 10
17962.9198551128
 20
-1477.945729200262
 30
0.0
 11
18046.9260536714
 21
-1477.945729200262
 31
0.0
  0
LINE
  5
42F9F
330
42E4B
100
AcDbEntity
  8
寸法線
370
    -2
100
AcDbLine
 10
17962.57379464116
 20
-2074.945729200261
 30
0.0
 11
18046.9260536714
 21
-2074.945729200261
 31
0.0
  0
LINE
  5
42FA0
330
42E4B
100
AcDbEntity
  8
寸法線
370
    -2
100
AcDbLine
 10
18041.9260536714
 20
-1502.945729200262
 30
0.0
 11
18041.9260536714
 21
-2049.945729200261
 31
0.0
  0
INSERT
  5
42FA1
330
42E4B
100
AcDbEntity
  8
寸法線
370
    -2
100
AcDbBlockReference
  2
_Open30
 10
18041.9260536714
 20
-1477.945729200262
 30
0.0
 41
25.0
 42
25.0
 43
25.0
 50
90.0
  0
INSERT
  5
42FA2
330
42E4B
100
AcDbEntity
  8
寸法線
370
    -2
100
AcDbBlockReference
  2
_Open30
 10
18041.9260536714
 20
-2074.945729200261
 30
0.0
 41
25.0
 42
25.0
 43
25.0
 50
270.0
  0
MTEXT
  5
42FA3
330
42E4B
100
AcDbEntity
  8
寸法線
100
AcDbMText
 10
18019.4260536714
 20
-1776.44572920026
 30
0.0
 40
25.0
 41
0.0
 71
     5
 72
     1
  1
\A1;600
  7
Roman
 11
0.0000000000000001
 21
1.0
 31
0.0
 73
     1
 44
1.0
1001
ACAD
1000
MTEXTBEGIN
1070
    73
1070
     1
1070
    44
1040
1.0
1070
    74
1070
     0
1000
MTEXTEND
  0
POINT
  5
42FA4
330
42E4B
100
AcDbEntity
  8
Defpoints
 62
     0
100
AcDbPoint
 10
17957.9198551128
 20
-1477.945729200262
 30
0.0
  0
POINT
  5
42FA5
330
42E4B
100
AcDbEntity
  8
Defpoints
 62
     0
100
AcDbPoint
 10
17957.57379464116
 20
-2074.945729200261
 30
0.0
  0
POINT
  5
42FA6
330
42E4B
100
AcDbEntity
  8
Defpoints
 62
     0
100
AcDbPoint
 10
18041.9260536714
 20
-2074.945729200261
 30
0.0
  0
ENDBLK
  5
42E4D
330
42E4B
100
AcDbEntity
  8
0
100
AcDbBlockEnd
  0
BLOCK
  5
42E58
330
42E57
100
AcDbEntity
  8
0
100
AcDbBlockBegin
  2
*D87
 70
     1
 10
0.0
 20
0.0
 30
0.0
  3
*D87
  1

  0
LINE
  5
42FA7
330
42E57
100
AcDbEntity
  8
寸法線
370
    -2
100
AcDbLine
 10
18889.65409947766
 20
-2880.27234135353
 30
0.0
 11
18889.65409947766
 21
-3070.045344659369
 31
0.0
  0
LINE
  5
42FA8
330
42E57
100
AcDbEntity
  8
寸法線
370
    -2
100
AcDbLine
 10
18238.64936770796
 20
-2399.909418739239
 30
0.0
 11
18238.64936770796
 21
-3070.045344659369
 31
0.0
  0
LINE
  5
42FA9
330
42E57
100
AcDbEntity
  8
寸法線
370
    -2
100
AcDbLine
 10
18864.65409947766
 20
-3065.045344659369
 30
0.0
 11
18263.64936770796
 21
-3065.045344659369
 31
0.0
  0
INSERT
  5
42FAA
330
42E57
100
AcDbEntity
  8
寸法線
370
    -2
100
AcDbBlockReference
  2
_Open30
 10
18889.65409947766
 20
-3065.045344659369
 30
0.0
 41
25.0
 42
25.0
 43
25.0
  0
INSERT
  5
42FAB
330
42E57
100
AcDbEntity
  8
寸法線
370
    -2
100
AcDbBlockReference
  2
_Open30
 10
18238.64936770796
 20
-3065.045344659369
 30
0.0
 41
25.0
 42
25.0
 43
25.0
 50
180.0
  0
MTEXT
  5
42FAC
330
42E57
100
AcDbEntity
  8
寸法線
100
AcDbMText
 10
18564.15173359281
 20
-3042.545344659369
 30
0.0
 40
25.0
 41
0.0
 71
     5
 72
     1
  1
\A1;650
  7
Roman
 73
     1
 44
1.0
1001
ACAD
1000
MTEXTBEGIN
1070
    73
1070
     1
1070
    44
1040
1.0
1070
    74
1070
     0
1000
MTEXTEND
  0
POINT
  5
42FAD
330
42E57
100
AcDbEntity
  8
Defpoints
 62
     0
100
AcDbPoint
 10
18889.65409947766
 20
-2875.272341353531
 30
0.0
  0
POINT
  5
42FAE
330
42E57
100
AcDbEntity
  8
Defpoints
 62
     0
100
AcDbPoint
 10
18238.64936770796
 20
-2394.909418739239
 30
0.0
  0
POINT
  5
42FAF
330
42E57
100
AcDbEntity
  8
Defpoints
 62
     0
100
AcDbPoint
 10
18238.64936770796
 20
-3065.045344659369
 30
0.0
  0
ENDBLK
  5
42E59
330
42E57
100
AcDbEntity
  8
0
100
AcDbBlockEnd
  0
BLOCK
  5
42E64
330
42E63
100
AcDbEntity
  8
0
100
AcDbBlockBegin
  2
*D88
 70
     1
 10
0.0
 20
0.0
 30
0.0
  3
*D88
  1

  0
LINE
  5
42FB0
330
42E63
100
AcDbEntity
  8
寸法線
370
    -2
100
AcDbLine
 10
18926.00395477218
 20
-1933.840077754169
 30
0.0
 11
18926.00395477218
 21
-2047.98356359669
 31
0.0
  0
LINE
  5
42FB1
330
42E63
100
AcDbEntity
  8
寸法線
370
    -2
100
AcDbLine
 10
19268.67062143885
 20
-1931.173420096634
 30
0.0
 11
19268.67062143885
 21
-2047.98356359669
 31
0.0
  0
LINE
  5
42FB2
330
42E63
100
AcDbEntity
  8
寸法線
370
    -2
100
AcDbLine
 10
18951.00395477219
 20
-2042.98356359669
 30
0.0
 11
19243.67062143885
 21
-2042.98356359669
 31
0.0
  0
INSERT
  5
42FB3
330
42E63
100
AcDbEntity
  8
寸法線
370
    -2
100
AcDbBlockReference
  2
_Open30
 10
18926.00395477218
 20
-2042.98356359669
 30
0.0
 41
25.0
 42
25.0
 43
25.0
 50
180.0
  0
INSERT
  5
42FB4
330
42E63
100
AcDbEntity
  8
寸法線
370
    -2
100
AcDbBlockReference
  2
_Open30
 10
19268.67062143885
 20
-2042.98356359669
 30
0.0
 41
25.0
 42
25.0
 43
25.0
  0
MTEXT
  5
42FB5
330
42E63
100
AcDbEntity
  8
寸法線
100
AcDbMText
 10
19097.33728810552
 20
-2020.48356359669
 30
0.0
 40
25.0
 41
0.0
 71
     5
 72
     1
  1
\A1;515
  7
Roman
 73
     1
 44
1.0
1001
ACAD
1000
MTEXTBEGIN
1070
    73
1070
     1
1070
    44
1040
1.0
1070
    74
1070
     0
1000
MTEXTEND
  0
POINT
  5
42FB6
330
42E63
100
AcDbEntity
  8
Defpoints
 62
     0
100
AcDbPoint
 10
18926.00395477218
 20
-1928.840077754169
 30
0.0
  0
POINT
  5
42FB7
330
42E63
100
AcDbEntity
  8
Defpoints
 62
     0
100
AcDbPoint
 10
19268.67062143885
 20
-1926.173420096634
 30
0.0
  0
POINT
  5
42FB8
330
42E63
100
AcDbEntity
  8
Defpoints
 62
     0
100
AcDbPoint
 10
19268.67062143885
 20
-2042.98356359669
 30
0.0
  0
ENDBLK
  5
42E65
330
42E63
100
AcDbEntity
  8
0
100
AcDbBlockEnd
  0
BLOCK
  5
42E70
330
42E6F
100
AcDbEntity
  8
0
100
AcDbBlockBegin
  2
*D89
 70
     1
 10
0.0
 20
0.0
 30
0.0
  3
*D89
  1

  0
LINE
  5
42FB9
330
42E6F
100
AcDbEntity
  8
寸法線
370
    -2
100
AcDbLine
 10
18411.62659968694
 20
-2880.272341353531
 30
0.0
 11
18411.62659968694
 21
-3020.32582796028
 31
0.0
  0
LINE
  5
42FBA
330
42E6F
100
AcDbEntity
  8
寸法線
370
    -2
100
AcDbLine
 10
18238.64936770796
 20
-2877.822341353531
 30
0.0
 11
18238.64936770796
 21
-3020.32582796028
 31
0.0
  0
LINE
  5
42FBB
330
42E6F
100
AcDbEntity
  8
寸法線
370
    -2
100
AcDbLine
 10
18386.62659968694
 20
-3015.32582796028
 30
0.0
 11
18263.64936770796
 21
-3015.32582796028
 31
0.0
  0
INSERT
  5
42FBC
330
42E6F
100
AcDbEntity
  8
寸法線
370
    -2
100
AcDbBlockReference
  2
_Open30
 10
18411.62659968694
 20
-3015.32582796028
 30
0.0
 41
25.0
 42
25.0
 43
25.0
  0
INSERT
  5
42FBD
330
42E6F
100
AcDbEntity
  8
寸法線
370
    -2
100
AcDbBlockReference
  2
_Open30
 10
18238.64936770796
 20
-3015.32582796028
 30
0.0
 41
25.0
 42
25.0
 43
25.0
 50
180.0
  0
MTEXT
  5
42FBE
330
42E6F
100
AcDbEntity
  8
寸法線
100
AcDbMText
 10
18325.13798369745
 20
-2992.82582796028
 30
0.0
 40
25.0
 41
0.0
 71
     5
 72
     1
  1
\A1;175
  7
Roman
 73
     1
 44
1.0
1001
ACAD
1000
MTEXTBEGIN
1070
    73
1070
     1
1070
    44
1040
1.0
1070
    74
1070
     0
1000
MTEXTEND
  0
POINT
  5
42FBF
330
42E6F
100
AcDbEntity
  8
Defpoints
 62
     0
100
AcDbPoint
 10
18411.62659968694
 20
-2875.272341353531
 30
0.0
  0
POINT
  5
42FC0
330
42E6F
100
AcDbEntity
  8
Defpoints
 62
     0
100
AcDbPoint
 10
18238.64936770796
 20
-2872.822341353531
 30
0.0
  0
POINT
  5
42FC1
330
42E6F
100
AcDbEntity
  8
Defpoints
 62
     0
100
AcDbPoint
 10
18238.64936770796
 20
-3015.32582796028
 30
0.0
  0
ENDBLK
  5
42E71
330
42E6F
100
AcDbEntity
  8
0
100
AcDbBlockEnd
  0
BLOCK
  5
42E7C
330
42E7B
100
AcDbEntity
  8
0
100
AcDbBlockBegin
  2
*D90
 70
     1
 10
0.0
 20
0.0
 30
0.0
  3
*D90
  1

  0
LINE
  5
42FC2
330
42E7B
100
AcDbEntity
  8
寸法線
370
    -2
100
AcDbLine
 10
18884.65409947766
 20
-2875.272342546339
 30
0.0
 11
18629.82351059346
 21
-2875.272342546339
 31
0.0
  0
LINE
  5
42FC3
330
42E7B
100
AcDbEntity
  8
寸法線
370
    -2
100
AcDbLine
 10
18720.15410506865
 20
-2581.072341065736
 30
0.0
 11
18629.82351059346
 21
-2581.072341065736
 31
0.0
  0
LINE
  5
42FC4
330
42E7B
100
AcDbEntity
  8
寸法線
370
    -2
100
AcDbLine
 10
18634.82351059346
 20
-2850.272342546339
 30
0.0
 11
18634.82351059346
 21
-2606.072341065736
 31
0.0
  0
INSERT
  5
42FC5
330
42E7B
100
AcDbEntity
  8
寸法線
370
    -2
100
AcDbBlockReference
  2
_Open30
 10
18634.82351059346
 20
-2875.272342546339
 30
0.0
 41
25.0
 42
25.0
 43
25.0
 50
270.0
  0
INSERT
  5
42FC6
330
42E7B
100
AcDbEntity
  8
寸法線
370
    -2
100
AcDbBlockReference
  2
_Open30
 10
18634.82351059346
 20
-2581.072341065736
 30
0.0
 41
25.0
 42
25.0
 43
25.0
 50
90.0
  0
MTEXT
  5
42FC7
330
42E7B
100
AcDbEntity
  8
寸法線
100
AcDbMText
 10
18612.32351059346
 20
-2728.172341806034
 30
0.0
 40
25.0
 41
0.0
 71
     5
 72
     1
  1
\A1;295
  7
Roman
 11
0.0000000000000001
 21
1.0
 31
0.0
 73
     1
 44
1.0
1001
ACAD
1000
MTEXTBEGIN
1070
    73
1070
     1
1070
    44
1040
1.0
1070
    74
1070
     0
1000
MTEXTEND
  0
POINT
  5
42FC8
330
42E7B
100
AcDbEntity
  8
Defpoints
 62
     0
100
AcDbPoint
 10
18889.65409947766
 20
-2875.272342546339
 30
0.0
  0
POINT
  5
42FC9
330
42E7B
100
AcDbEntity
  8
Defpoints
 62
     0
100
AcDbPoint
 10
18725.15410506865
 20
-2581.072341065736
 30
0.0
  0
POINT
  5
42FCA
330
42E7B
100
AcDbEntity
  8
Defpoints
 62
     0
100
AcDbPoint
 10
18634.82351059346
 20
-2581.072341065736
 30
0.0
  0
ENDBLK
  5
42E7D
330
42E7B
100
AcDbEntity
  8
0
100
AcDbBlockEnd
  0
BLOCK
  5
42E88
330
42E87
100
AcDbEntity
  8
0
100
AcDbBlockBegin
  2
*D91
 70
     1
 10
0.0
 20
0.0
 30
0.0
  3
*D91
  1

  0
LINE
  5
42FCB
330
42E87
100
AcDbEntity
  8
寸法線
370
    -2
100
AcDbLine
 10
19598.27012263718
 20
-1269.03516584667
 30
0.0
 11
19690.34229568462
 21
-1269.03516584667
 31
0.0
  0
LINE
  5
42FCC
330
42E87
100
AcDbEntity
  8
寸法線
370
    -2
100
AcDbLine
 10
19625.73730691369
 20
-1927.173420096639
 30
0.0
 11
19690.34229568462
 21
-1927.173420096639
 31
0.0
  0
LINE
  5
42FCD
330
42E87
100
AcDbEntity
  8
寸法線
370
    -2
100
AcDbLine
 10
19685.34229568462
 20
-1294.035165846669
 30
0.0
 11
19685.34229568462
 21
-1902.173420096639
 31
0.0
  0
INSERT
  5
42FCE
330
42E87
100
AcDbEntity
  8
寸法線
370
    -2
100
AcDbBlockReference
  2
_Open30
 10
19685.34229568462
 20
-1269.03516584667
 30
0.0
 41
25.0
 42
25.0
 43
25.0
 50
90.0
  0
INSERT
  5
42FCF
330
42E87
100
AcDbEntity
  8
寸法線
370
    -2
100
AcDbBlockReference
  2
_Open30
 10
19685.34229568462
 20
-1927.173420096639
 30
0.0
 41
25.0
 42
25.0
 43
25.0
 50
270.0
  0
MTEXT
  5
42FD0
330
42E87
100
AcDbEntity
  8
寸法線
100
AcDbMText
 10
19662.84229568462
 20
-1598.104292971651
 30
0.0
 40
25.0
 41
0.0
 71
     5
 72
     1
  1
\A1;990
  7
Roman
 11
0.0000000000000001
 21
1.0
 31
0.0
 73
     1
 44
1.0
1001
ACAD
1000
MTEXTBEGIN
1070
    73
1070
     1
1070
    44
1040
1.0
1070
    74
1070
     0
1000
MTEXTEND
  0
POINT
  5
42FD1
330
42E87
100
AcDbEntity
  8
Defpoints
 62
     0
100
AcDbPoint
 10
19593.27012263718
 20
-1269.03516584667
 30
0.0
  0
POINT
  5
42FD2
330
42E87
100
AcDbEntity
  8
Defpoints
 62
     0
100
AcDbPoint
 10
19620.73730691369
 20
-1927.173420096639
 30
0.0
  0
POINT
  5
42FD3
330
42E87
100
AcDbEntity
  8
Defpoints
 62
     0
100
AcDbPoint
 10
19685.34229568462
 20
-1927.173420096639
 30
0.0
  0
ENDBLK
  5
42E89
330
42E87
100
AcDbEntity
  8
0
100
AcDbBlockEnd
  0
BLOCK
  5
42E94
330
42E93
100
AcDbEntity
  8
0
100
AcDbBlockBegin
  2
*D92
 70
     1
 10
0.0
 20
0.0
 30
0.0
  3
*D92
  1

  0
LINE
  5
42FD4
330
42E93
100
AcDbEntity
  8
寸法線
370
    -2
100
AcDbLine
 10
19651.69356953466
 20
-2728.072342546339
 30
0.0
 11
19651.69356953466
 21
-2998.617339850331
 31
0.0
  0
LINE
  5
42FD5
330
42E93
100
AcDbEntity
  8
寸法線
370
    -2
100
AcDbLine
 10
20051.69356050148
 20
-2738.46394103256
 30
0.0
 11
20051.69356050148
 21
-2998.617339850331
 31
0.0
  0
LINE
  5
42FD6
330
42E93
100
AcDbEntity
  8
寸法線
370
    -2
100
AcDbLine
 10
19676.69356953466
 20
-2993.617339850331
 30
0.0
 11
20026.69356050148
 21
-2993.617339850331
 31
0.0
  0
INSERT
  5
42FD7
330
42E93
100
AcDbEntity
  8
寸法線
370
    -2
100
AcDbBlockReference
  2
_Open30
 10
19651.69356953466
 20
-2993.617339850331
 30
0.0
 41
25.0
 42
25.0
 43
25.0
 50
180.0
  0
INSERT
  5
42FD8
330
42E93
100
AcDbEntity
  8
寸法線
370
    -2
100
AcDbBlockReference
  2
_Open30
 10
20051.69356050148
 20
-2993.617339850331
 30
0.0
 41
25.0
 42
25.0
 43
25.0
  0
MTEXT
  5
42FD9
330
42E93
100
AcDbEntity
  8
寸法線
100
AcDbMText
 10
19851.69356501807
 20
-2971.11733985033
 30
0.0
 40
25.0
 41
0.0
 71
     5
 72
     1
  1
\A1;400
  7
Roman
 73
     1
 44
1.0
1001
ACAD
1000
MTEXTBEGIN
1070
    73
1070
     1
1070
    44
1040
1.0
1070
    74
1070
     0
1000
MTEXTEND
  0
POINT
  5
42FDA
330
42E93
100
AcDbEntity
  8
Defpoints
 62
     0
100
AcDbPoint
 10
19651.69356953466
 20
-2723.07234254634
 30
0.0
  0
POINT
  5
42FDB
330
42E93
100
AcDbEntity
  8
Defpoints
 62
     0
100
AcDbPoint
 10
20051.69356050148
 20
-2733.46394103256
 30
0.0
  0
POINT
  5
42FDC
330
42E93
100
AcDbEntity
  8
Defpoints
 62
     0
100
AcDbPoint
 10
20051.69356050148
 20
-2993.617339850331
 30
0.0
  0
ENDBLK
  5
42E95
330
42E93
100
AcDbEntity
  8
0
100
AcDbBlockEnd
  0
BLOCK
  5
42EA0
330
42E9F
100
AcDbEntity
  8
0
100
AcDbBlockBegin
  2
*D93
 70
     1
 10
0.0
 20
0.0
 30
0.0
  3
*D93
  1

  0
LINE
  5
42FDD
330
42E9F
100
AcDbEntity
  8
寸法線
370
    -2
100
AcDbLine
 10
19856.69356501807
 20
-2625.57234254634
 30
0.0
 11
19997.47734413616
 21
-2625.57234254634
 31
0.0
  0
LINE
  5
42FDE
330
42E9F
100
AcDbEntity
  8
寸法線
370
    -2
100
AcDbLine
 10
19856.69356501807
 20
-2705.57234254634
 30
0.0
 11
19997.47734413616
 21
-2705.57234254634
 31
0.0
  0
LINE
  5
42FDF
330
42E9F
100
AcDbEntity
  8
寸法線
370
    -2
100
AcDbLine
 10
19992.47734413616
 20
-2650.57234254634
 30
0.0
 11
19992.47734413616
 21
-2680.572342546339
 31
0.0
  0
INSERT
  5
42FE0
330
42E9F
100
AcDbEntity
  8
寸法線
370
    -2
100
AcDbBlockReference
  2
_Open30
 10
19992.47734413616
 20
-2625.57234254634
 30
0.0
 41
25.0
 42
25.0
 43
25.0
 50
90.0
  0
INSERT
  5
42FE1
330
42E9F
100
AcDbEntity
  8
寸法線
370
    -2
100
AcDbBlockReference
  2
_Open30
 10
19992.47734413616
 20
-2705.57234254634
 30
0.0
 41
25.0
 42
25.0
 43
25.0
 50
270.0
  0
MTEXT
  5
42FE2
330
42E9F
100
AcDbEntity
  8
寸法線
100
AcDbMText
 10
19969.97734413616
 20
-2665.572342546336
 30
0.0
 40
25.0
 41
0.0
 71
     5
 72
     1
  1
\A1;80
  7
Roman
 11
0.0000000000000001
 21
1.0
 31
0.0
 73
     1
 44
1.0
1001
ACAD
1000
MTEXTBEGIN
1070
    73
1070
     1
1070
    44
1040
1.0
1070
    74
1070
     0
1000
MTEXTEND
  0
POINT
  5
42FE3
330
42E9F
100
AcDbEntity
  8
Defpoints
 62
     0
100
AcDbPoint
 10
19851.69356501807
 20
-2625.57234254634
 30
0.0
  0
POINT
  5
42FE4
330
42E9F
100
AcDbEntity
  8
Defpoints
 62
     0
100
AcDbPoint
 10
19851.69356501807
 20
-2705.57234254634
 30
0.0
  0
POINT
  5
42FE5
330
42E9F
100
AcDbEntity
  8
Defpoints
 62
     0
100
AcDbPoint
 10
19992.47734413616
 20
-2705.57234254634
 30
0.0
  0
ENDBLK
  5
42EA1
330
42E9F
100
AcDbEntity
  8
0
100
AcDbBlockEnd
  0
BLOCK
  5
42EAC
330
42EAB
100
AcDbEntity
  8
0
100
AcDbBlockBegin
  2
*D94
 70
     1
 10
0.0
 20
0.0
 30
0.0
  3
*D94
  1

  0
LINE
  5
42FE6
330
42EAB
100
AcDbEntity
  8
寸法線
370
    -2
100
AcDbLine
 10
19856.69356501807
 20
-2705.57234254634
 30
0.0
 11
19997.47734413616
 21
-2705.57234254634
 31
0.0
  0
LINE
  5
42FE7
330
42EAB
100
AcDbEntity
  8
寸法線
370
    -2
100
AcDbLine
 10
19856.69356501807
 20
-2876.77234254634
 30
0.0
 11
19997.47734413616
 21
-2876.77234254634
 31
0.0
  0
LINE
  5
42FE8
330
42EAB
100
AcDbEntity
  8
寸法線
370
    -2
100
AcDbLine
 10
19992.47734413616
 20
-2730.57234254634
 30
0.0
 11
19992.47734413616
 21
-2851.77234254634
 31
0.0
  0
INSERT
  5
42FE9
330
42EAB
100
AcDbEntity
  8
寸法線
370
    -2
100
AcDbBlockReference
  2
_Open30
 10
19992.47734413616
 20
-2705.57234254634
 30
0.0
 41
25.0
 42
25.0
 43
25.0
 50
90.0
  0
INSERT
  5
42FEA
330
42EAB
100
AcDbEntity
  8
寸法線
370
    -2
100
AcDbBlockReference
  2
_Open30
 10
19992.47734413616
 20
-2876.77234254634
 30
0.0
 41
25.0
 42
25.0
 43
25.0
 50
270.0
  0
MTEXT
  5
42FEB
330
42EAB
100
AcDbEntity
  8
寸法線
100
AcDbMText
 10
19969.97734413616
 20
-2791.172342546337
 30
0.0
 40
25.0
 41
0.0
 71
     5
 72
     1
  1
\A1;170
  7
Roman
 11
0.0000000000000001
 21
1.0
 31
0.0
 73
     1
 44
1.0
1001
ACAD
1000
MTEXTBEGIN
1070
    73
1070
     1
1070
    44
1040
1.0
1070
    74
1070
     0
1000
MTEXTEND
  0
POINT
  5
42FEC
330
42EAB
100
AcDbEntity
  8
Defpoints
 62
     0
100
AcDbPoint
 10
19851.69356501807
 20
-2705.57234254634
 30
0.0
  0
POINT
  5
42FED
330
42EAB
100
AcDbEntity
  8
Defpoints
 62
     0
100
AcDbPoint
 10
19851.69356501807
 20
-2876.77234254634
 30
0.0
  0
POINT
  5
42FEE
330
42EAB
100
AcDbEntity
  8
Defpoints
 62
     0
100
AcDbPoint
 10
19992.47734413616
 20
-2876.77234254634
 30
0.0
  0
ENDBLK
  5
42EAD
330
42EAB
100
AcDbEntity
  8
0
100
AcDbBlockEnd
  0
BLOCK
  5
4313A
330
43139
100
AcDbEntity
  8
0
100
AcDbBlockBegin
  2
*D98
 70
     1
 10
0.0
 20
0.0
 30
0.0
  3
*D98
  1

  0
LINE
  5
4313C
330
43139
100
AcDbEntity
  8
寸法線
370
    -2
100
AcDbLine
 10
18488.7578531187
 20
-4437.303977672558
 30
0.0
 11
18400.69055542258
 21
-4437.303977672558
 31
0.0
  0
LINE
  5
4313D
330
43139
100
AcDbEntity
  8
寸法線
370
    -2
100
AcDbLine
 10
18621.79538025749
 20
-4421.301105885611
 30
0.0
 11
18400.69055542258
 21
-4421.30110588561
 31
0.0
  0
LINE
  5
4313E
330
43139
100
AcDbEntity
  8
寸法線
370
    -2
100
AcDbLine
 10
18405.69055542258
 20
-4462.303977672558
 30
0.0
 11
18405.69055542258
 21
-4487.303977672558
 31
0.0
  0
LINE
  5
4313F
330
43139
100
AcDbEntity
  8
寸法線
370
    -2
100
AcDbLine
 10
18405.69055542258
 20
-4396.30110588561
 30
0.0
 11
18405.69055542258
 21
-4317.967772552277
 31
0.0
  0
LINE
  5
43140
330
43139
100
AcDbEntity
  8
寸法線
370
    -2
100
AcDbLine
 10
18405.69055542258
 20
-4437.303977672558
 30
0.0
 11
18405.69055542258
 21
-4421.30110588561
 31
0.0
  0
INSERT
  5
43141
330
43139
100
AcDbEntity
  8
寸法線
370
    -2
100
AcDbBlockReference
  2
_Open30
 10
18405.69055542258
 20
-4437.303977672558
 30
0.0
 41
25.0
 42
25.0
 43
25.0
 50
90.0
  0
INSERT
  5
43142
330
43139
100
AcDbEntity
  8
寸法線
370
    -2
100
AcDbBlockReference
  2
_Open30
 10
18405.69055542258
 20
-4421.30110588561
 30
0.0
 41
25.0
 42
25.0
 43
25.0
 50
270.0
  0
MTEXT
  5
43143
330
43139
100
AcDbEntity
  8
寸法線
100
AcDbMText
 10
18383.19055542258
 20
-4344.63443921894
 30
0.0
 40
25.0
 41
0.0
 71
     5
 72
     1
  1
\A1;16
  7
Roman
 11
0.0000000000000001
 21
1.0
 31
0.0
 73
     1
 44
1.0
1001
ACAD
1000
MTEXTBEGIN
1070
    73
1070
     1
1070
    44
1040
1.0
1070
    74
1070
     0
1000
MTEXTEND
  0
POINT
  5
43144
330
43139
100
AcDbEntity
  8
Defpoints
 62
     0
100
AcDbPoint
 10
18493.7578531187
 20
-4437.303977672558
 30
0.0
  0
POINT
  5
43145
330
43139
100
AcDbEntity
  8
Defpoints
 62
     0
100
AcDbPoint
 10
18626.79538025749
 20
-4421.301105885611
 30
0.0
  0
POINT
  5
43146
330
43139
100
AcDbEntity
  8
Defpoints
 62
     0
100
AcDbPoint
 10
18405.69055542258
 20
-4421.30110588561
 30
0.0
  0
ENDBLK
  5
4313B
330
43139
100
AcDbEntity
  8
0
100
AcDbBlockEnd
  0
BLOCK
  5
431CA
330
431C9
100
AcDbEntity
  8
0
100
AcDbBlockBegin
  2
SW_CENTERMARKSYMBOL_0
 70
     0
 10
0.0
 20
0.0
 30
0.0
  3
SW_CENTERMARKSYMBOL_0
  1

  0
LINE
  5
431CB
330
431C9
100
AcDbEntity
  8
0
  6
Continuous
 62
     0
370
     0
100
AcDbLine
 10
0.0
 20
0.0
 30
0.0
 11
0.0
 21
2.500000000000002
 31
0.0
  0
LINE
  5
431CC
330
431C9
100
AcDbEntity
  8
0
  6
Continuous
 62
     0
370
     0
100
AcDbLine
 10
0.0
 20
0.0
 30
0.0
 11
-2.500000000000002
 21
0.0
 31
0.0
  0
LINE
  5
431CD
330
431C9
100
AcDbEntity
  8
0
  6
Continuous
 62
     0
370
     0
100
AcDbLine
 10
0.0
 20
0.0
 30
0.0
 11
0.0
 21
-2.500000000000002
 31
0.0
  0
LINE
  5
431CE
330
431C9
100
AcDbEntity
  8
0
  6
Continuous
 62
     0
370
     0
100
AcDbLine
 10
0.0
 20
0.0
 30
0.0
 11
2.500000000000002
 21
0.0
 31
0.0
  0
LINE
  5
431CF
330
431C9
100
AcDbEntity
  8
0
  6
Continuous
 62
     0
370
     0
100
AcDbLine
 10
0.0
 20
2.500000000000002
 30
0.0
 11
0.0
 21
4.950000000000009
 31
0.0
  0
LINE
  5
431D0
330
431C9
100
AcDbEntity
  8
0
  6
Continuous
 62
     0
370
     0
100
AcDbLine
 10
-2.500000000000002
 20
0.0
 30
0.0
 11
-4.950000000000009
 21
0.0
 31
0.0
  0
LINE
  5
431D1
330
431C9
100
AcDbEntity
  8
0
  6
Continuous
 62
     0
370
     0
100
AcDbLine
 10
0.0
 20
-2.500000000000002
 30
0.0
 11
0.0
 21
-4.950000000000009
 31
0.0
  0
LINE
  5
431D2
330
431C9
100
AcDbEntity
  8
0
  6
Continuous
 62
     0
370
     0
100
AcDbLine
 10
2.500000000000002
 20
0.0
 30
0.0
 11
4.950000000000009
 21
0.0
 31
0.0
  0
ENDBLK
  5
431D3
330
431C9
100
AcDbEntity
  8
0
100
AcDbBlockEnd
  0
ENDSEC
  0
SECTION
  2
ENTITIES
  0
MTEXT
  5
28FE
330
1F
100
AcDbEntity
  8
寸法線
100
AcDbMText
 10
341.784876696436
 20
796.0203856594869
 30
0.0
 40
8.0
 41
0.0
 71
     9
 72
     1
  1

  7
Roman
 73
     1
 44
1.0
1001
ACAD
1000
MTEXTBEGIN
1070
    73
1070
     1
1070
    44
1040
1.0
1070
    74
1070
     0
1000
MTEXTEND
  0
LINE
  5
42AEC
330
1F
100
AcDbEntity
  8
実線1
100
AcDbLine
 10
17956.13384258771
 20
-4470.30098658433
 30
0.0
 11
17956.13384258771
 21
-4496.800986584331
 31
0.0
  0
LINE
  5
42AED
330
1F
100
AcDbEntity
  8
実線1
100
AcDbLine
 10
17950.13384257672
 20
-4502.801046469961
 30
0.0
 11
17482.13381541894
 21
-4502.801045613085
 31
0.0
  0
ARC
  5
42AEE
330
1F
100
AcDbEntity
  8
実線1
100
AcDbCircle
 10
17950.1338425877
 20
-4496.801046469961
 30
0.0
 40
6.0
100
AcDbArc
 50
269.9999998950501
 51
0.0
  0
LINE
  5
42AEF
330
1F
100
AcDbEntity
  8
実線1
100
AcDbLine
 10
16482.1337882282
 20
-4470.30098658433
 30
0.0
 11
16482.13378822821
 21
-4496.800986584331
 31
0.0
  0
ARC
  5
42AF0
330
1F
100
AcDbEntity
  8
実線1
100
AcDbCircle
 10
16488.13378822821
 20
-4496.800986584331
 30
0.0
 40
6.0
100
AcDbArc
 50
180.0
 51
270.0000000235538
  0
LINE
  5
42AF1
330
1F
100
AcDbEntity
  8
実線1
100
AcDbLine
 10
16962.13381540796
 20
-4508.800986391412
 30
0.0
 11
16962.13381540798
 21
-4545.122868263422
 31
0.0
  0
LINE
  5
42AF2
330
1F
100
AcDbEntity
  8
実線1
100
AcDbLine
 10
17476.13381540795
 20
-4508.800985727455
 30
0.0
 11
17476.13381540798
 21
-4545.122868263422
 31
0.0
  0
ARC
  5
42AF3
330
1F
100
AcDbEntity
  8
実線1
100
AcDbCircle
 10
17482.13381540796
 20
-4508.800985727455
 30
0.0
 40
6.0
100
AcDbArc
 50
89.99999989505004
 51
180.0
  0
LINE
  5
42AF4
330
1F
100
AcDbEntity
  8
実線1
100
AcDbLine
 10
17470.13381540798
 20
-4564.800984108122
 30
0.0
 11
16968.13381540798
 21
-4564.800984108122
 31
0.0
  0
ARC
  5
42AF5
330
1F
100
AcDbEntity
  8
実線1
100
AcDbCircle
 10
17470.13381540798
 20
-4558.800984108122
 30
0.0
 40
6.0
100
AcDbArc
 50
270.0
 51
0.0
  0
LINE
  5
42AF6
330
1F
100
AcDbEntity
  8
実線1
100
AcDbLine
 10
16962.13381540798
 20
-4545.122868263422
 30
0.0
 11
16962.13381540798
 21
-4558.800984108122
 31
0.0
  0
ARC
  5
42AF7
330
1F
100
AcDbEntity
  8
実線1
100
AcDbCircle
 10
16968.13381540798
 20
-4558.800984108122
 30
0.0
 40
6.0
100
AcDbArc
 50
180.0
 51
270.0
  0
LINE
  5
42AF8
330
1F
100
AcDbEntity
  8
実線1
100
AcDbLine
 10
17476.13381540798
 20
-4545.122868263422
 30
0.0
 11
17476.13381540798
 21
-4558.800984108122
 31
0.0
  0
LINE
  5
42AF9
330
1F
100
AcDbEntity
  8
実線1
100
AcDbLine
 10
17482.13381541894
 20
-4502.800985727454
 30
0.0
 11
16488.13378823068
 21
-4502.800986584331
 31
0.0
  0
ARC
  5
42AFA
330
1F
100
AcDbEntity
  8
実線1
100
AcDbCircle
 10
16956.13381540795
 20
-4508.800986391412
 30
0.0
 40
6.0
100
AcDbArc
 50
0.0
 51
90.00000002355381
  0
LINE
  5
42B29
330
1F
100
AcDbEntity
  8
実線1
100
AcDbLine
 10
17954.13382842434
 20
-4450.301046469962
 30
0.0
 11
16484.13382857472
 21
-4450.301046469962
 31
0.0
  0
LINE
  5
42B2A
330
1F
100
AcDbEntity
  8
実線1
100
AcDbLine
 10
17950.13367901502
 20
-4470.301051749573
 30
0.0
 11
17951.83847146947
 21
-4470.301051749573
 31
0.0
  0
LINE
  5
42B2B
330
1F
100
AcDbEntity
  8
実線1
100
AcDbLine
 10
17960.02101113047
 20
-4470.301359750572
 30
0.0
 11
17960.13108131524
 21
-4470.300743748577
 31
0.0
  0
LINE
  5
42B2C
330
1F
100
AcDbEntity
  8
実線1
100
AcDbLine
 10
16469.13382849953
 20
-4465.30098631342
 30
0.0
 11
16469.13382849953
 21
-4465.299593717641
 31
0.0
  0
LINE
  5
42B2D
330
1F
100
AcDbEntity
  8
実線1
100
AcDbLine
 10
16474.13382849953
 20
-4470.300986313421
 30
0.0
 11
17964.13382849952
 21
-4470.300986313418
 31
0.0
  0
ARC
  5
42B2E
330
1F
100
AcDbEntity
  8
実線1
100
AcDbCircle
 10
16474.13382849953
 20
-4465.300986313418
 30
0.0
 40
5.0
100
AcDbArc
 50
180.0
 51
269.9999999998958
  0
ARC
  5
42B2F
330
1F
100
AcDbEntity
  8
実線1
100
AcDbCircle
 10
16484.13382842918
 20
-4465.301046469962
 30
0.0
 40
15.0
100
AcDbArc
 50
89.99999944398409
 51
179.9944508948424
  0
LINE
  5
42B30
330
1F
100
AcDbEntity
  8
実線1
100
AcDbLine
 10
17969.13382849953
 20
-4465.30098631342
 30
0.0
 11
17969.13382849953
 21
-4465.299593717641
 31
0.0
  0
ARC
  5
42B31
330
1F
100
AcDbEntity
  8
実線1
100
AcDbCircle
 10
17964.13382849952
 20
-4465.300986313418
 30
0.0
 40
5.0
100
AcDbArc
 50
270.0
 51
359.9999999999479
  0
ARC
  5
42B32
330
1F
100
AcDbEntity
  8
実線1
100
AcDbCircle
 10
17954.13382856987
 20
-4465.301046469962
 30
0.0
 40
15.0
100
AcDbArc
 50
0.0055491051054269
 51
90.0000005559117
  0
LINE
  5
42B85
330
1F
100
AcDbEntity
  8
実線1
100
AcDbLine
 10
16523.38381540791
 20
-4483.022674197315
 30
0.0
 11
16522.13381540791
 21
-4483.744362033804
 31
0.0
  0
LINE
  5
42B86
330
1F
100
AcDbEntity
  8
実線1
100
AcDbLine
 10
16520.88381540791
 20
-4483.022674197315
 30
0.0
 11
16520.88381540791
 21
-4481.57929852434
 31
0.0
  0
LINE
  5
42B87
330
1F
100
AcDbEntity
  8
実線1
100
AcDbLine
 10
16522.13381540791
 20
-4483.744362033804
 30
0.0
 11
16520.88381540791
 21
-4483.022674197315
 31
0.0
  0
LINE
  5
42B88
330
1F
100
AcDbEntity
  8
実線1
100
AcDbLine
 10
16522.13381540791
 20
-4480.857610687855
 30
0.0
 11
16523.38381540791
 21
-4481.57929852434
 31
0.0
  0
LINE
  5
42B89
330
1F
100
AcDbEntity
  8
実線1
100
AcDbLine
 10
16520.88381540791
 20
-4481.57929852434
 30
0.0
 11
16522.13381540791
 21
-4480.857610687855
 31
0.0
  0
LINE
  5
42B8A
330
1F
100
AcDbEntity
  8
実線1
100
AcDbLine
 10
16523.38381540791
 20
-4481.57929852434
 30
0.0
 11
16523.38381540791
 21
-4483.022674197315
 31
0.0
  0
CIRCLE
  5
42B8B
330
1F
100
AcDbEntity
  8
実線1
100
AcDbCircle
 10
16522.13381540791
 20
-4482.30098636083
 30
0.0
 40
4.59999999999999
  0
LINE
  5
42B8C
330
1F
100
AcDbEntity
  8
実線1
100
AcDbLine
 10
16920.38379418866
 20
-4483.022674420816
 30
0.0
 11
16919.13379418866
 21
-4483.744362257304
 31
0.0
  0
LINE
  5
42B8D
330
1F
100
AcDbEntity
  8
実線1
100
AcDbLine
 10
16917.88379418866
 20
-4483.022674420816
 30
0.0
 11
16917.88379418866
 21
-4481.579298747839
 31
0.0
  0
LINE
  5
42B8E
330
1F
100
AcDbEntity
  8
実線1
100
AcDbLine
 10
16919.13379418866
 20
-4483.744362257304
 30
0.0
 11
16917.88379418866
 21
-4483.022674420816
 31
0.0
  0
LINE
  5
42B8F
330
1F
100
AcDbEntity
  8
実線1
100
AcDbLine
 10
16919.13379418866
 20
-4480.857610911354
 30
0.0
 11
16920.38379418866
 21
-4481.579298747839
 31
0.0
  0
LINE
  5
42B90
330
1F
100
AcDbEntity
  8
実線1
100
AcDbLine
 10
16917.88379418866
 20
-4481.579298747839
 30
0.0
 11
16919.13379418866
 21
-4480.857610911354
 31
0.0
  0
LINE
  5
42B91
330
1F
100
AcDbEntity
  8
実線1
100
AcDbLine
 10
16920.38379418866
 20
-4481.579298747839
 30
0.0
 11
16920.38379418866
 21
-4483.022674420816
 31
0.0
  0
CIRCLE
  5
42B92
330
1F
100
AcDbEntity
  8
実線1
100
AcDbCircle
 10
16919.13379418866
 20
-4482.30098658433
 30
0.0
 40
4.59999999999999
  0
LINE
  5
42B93
330
1F
100
AcDbEntity
  8
実線1
100
AcDbLine
 10
17520.38380229491
 20
-4483.022674197315
 30
0.0
 11
17519.13380229491
 21
-4483.744362033804
 31
0.0
  0
LINE
  5
42B94
330
1F
100
AcDbEntity
  8
実線1
100
AcDbLine
 10
17517.88380229491
 20
-4483.022674197315
 30
0.0
 11
17517.88380229491
 21
-4481.57929852434
 31
0.0
  0
LINE
  5
42B95
330
1F
100
AcDbEntity
  8
実線1
100
AcDbLine
 10
17519.13380229491
 20
-4483.744362033804
 30
0.0
 11
17517.88380229491
 21
-4483.022674197315
 31
0.0
  0
LINE
  5
42B96
330
1F
100
AcDbEntity
  8
実線1
100
AcDbLine
 10
17519.13380229491
 20
-4480.857610687855
 30
0.0
 11
17520.38380229491
 21
-4481.57929852434
 31
0.0
  0
LINE
  5
42B97
330
1F
100
AcDbEntity
  8
実線1
100
AcDbLine
 10
17517.88380229491
 20
-4481.57929852434
 30
0.0
 11
17519.13380229491
 21
-4480.857610687855
 31
0.0
  0
LINE
  5
42B98
330
1F
100
AcDbEntity
  8
実線1
100
AcDbLine
 10
17520.38380229491
 20
-4481.57929852434
 30
0.0
 11
17520.38380229491
 21
-4483.022674197315
 31
0.0
  0
CIRCLE
  5
42B99
330
1F
100
AcDbEntity
  8
実線1
100
AcDbCircle
 10
17519.13380229491
 20
-4482.30098636083
 30
0.0
 40
4.59999999999999
  0
LINE
  5
42B9A
330
1F
100
AcDbEntity
  8
実線1
100
AcDbLine
 10
17917.38381540791
 20
-4483.022674197315
 30
0.0
 11
17916.13381540791
 21
-4483.744362033804
 31
0.0
  0
LINE
  5
42B9B
330
1F
100
AcDbEntity
  8
実線1
100
AcDbLine
 10
17914.88381540791
 20
-4483.022674197315
 30
0.0
 11
17914.88381540791
 21
-4481.57929852434
 31
0.0
  0
LINE
  5
42B9C
330
1F
100
AcDbEntity
  8
実線1
100
AcDbLine
 10
17916.13381540791
 20
-4483.744362033804
 30
0.0
 11
17914.88381540791
 21
-4483.022674197315
 31
0.0
  0
LINE
  5
42B9D
330
1F
100
AcDbEntity
  8
実線1
100
AcDbLine
 10
17916.13381540791
 20
-4480.857610687855
 30
0.0
 11
17917.38381540791
 21
-4481.57929852434
 31
0.0
  0
LINE
  5
42B9E
330
1F
100
AcDbEntity
  8
実線1
100
AcDbLine
 10
17914.88381540791
 20
-4481.57929852434
 30
0.0
 11
17916.13381540791
 21
-4480.857610687855
 31
0.0
  0
LINE
  5
42B9F
330
1F
100
AcDbEntity
  8
実線1
100
AcDbLine
 10
17917.38381540791
 20
-4481.57929852434
 30
0.0
 11
17917.38381540791
 21
-4483.022674197315
 31
0.0
  0
CIRCLE
  5
42BA0
330
1F
100
AcDbEntity
  8
実線1
100
AcDbCircle
 10
17916.13381540791
 20
-4482.30098636083
 30
0.0
 40
4.59999999999999
  0
LINE
  5
42CD3
330
1F
100
AcDbEntity
  8
実線1
100
AcDbLine
 10
16963.13382706903
 20
-4562.301104324007
 30
0.0
 11
16963.13382706903
 21
-4562.11762647811
 31
0.0
  0
LINE
  5
42CD4
330
1F
100
AcDbEntity
  8
実線1
100
AcDbLine
 10
16963.13382706903
 20
-4450.301046469962
 30
0.0
 11
16963.13382706903
 21
-4408.301107900307
 31
0.0
  0
LINE
  5
42CD5
330
1F
100
AcDbEntity
  8
実線1
100
AcDbLine
 10
17475.13382993003
 20
-4408.301107900307
 30
0.0
 11
17475.13382993003
 21
-4450.301046469962
 31
0.0
  0
LINE
  5
42CD8
330
1F
100
AcDbEntity
  8
実線1
 48
5.0
100
AcDbLine
 10
16963.13382706903
 20
-4408.301107900307
 30
0.0
 11
16963.13382706903
 21
-4408.301107900307
 31
0.0
  0
ARC
  5
42CD9
330
1F
100
AcDbEntity
  8
実線1
100
AcDbCircle
 10
17466.93382993003
 20
-4431.301107900307
 30
0.0
 40
3.0
100
AcDbArc
 50
343.0979539533751
 51
0.0
  0
ARC
  5
42CDB
330
1F
100
AcDbEntity
  8
実線1
100
AcDbCircle
 10
16971.33382706903
 20
-4431.301107900307
 30
0.0
 40
3.0
100
AcDbArc
 50
180.0
 51
197.2883918754008
  0
LINE
  5
42CDE
330
1F
100
AcDbEntity
  8
実線1
100
AcDbLine
 10
16963.13382706903
 20
-4408.301107900307
 30
0.0
 11
17017.83384866983
 21
-4408.301107900307
 31
0.0
  0
LINE
  5
42CE2
330
1F
100
AcDbEntity
  8
実線1
100
AcDbLine
 10
17017.83384866983
 20
-4408.301107900307
 30
0.0
 11
17023.79183439522
 21
-4408.301107900307
 31
0.0
  0
LINE
  5
42CE3
330
1F
100
AcDbEntity
  8
実線1
100
AcDbLine
 10
17023.79183439522
 20
-4408.301107900307
 30
0.0
 11
17414.93382993003
 21
-4408.301107900307
 31
0.0
  0
LINE
  5
42CE4
330
1F
100
AcDbEntity
  8
実線1
100
AcDbLine
 10
17414.93382993003
 20
-4408.301107900307
 30
0.0
 11
17420.43382993003
 21
-4408.301107900307
 31
0.0
  0
LINE
  5
42CE5
330
1F
100
AcDbEntity
  8
実線1
100
AcDbLine
 10
17420.43382993003
 20
-4408.301107900307
 30
0.0
 11
17475.13382993003
 21
-4408.301107900307
 31
0.0
  0
LINE
  5
42CE7
330
1F
100
AcDbEntity
  8
実線1
100
AcDbLine
 10
17018.33384866983
 20
-4408.801107900307
 30
0.0
 11
17018.33384866983
 21
-4409.948615375206
 31
0.0
  0
ARC
  5
42CE9
330
1F
100
AcDbEntity
  8
実線1
100
AcDbCircle
 10
17017.83384866983
 20
-4408.801107900307
 30
0.0
 40
0.5
100
AcDbArc
 50
0.0
 51
90.0
  0
LINE
  5
42CEB
330
1F
100
AcDbEntity
  8
実線1
100
AcDbLine
 10
16968.33382706903
 20
-4431.301107900307
 30
0.0
 11
16968.33382706903
 21
-4429.855368108255
 31
0.0
  0
LINE
  5
42CF7
330
1F
100
AcDbEntity
  8
実線1
100
AcDbLine
 10
17422.63382993003
 20
-4408.301107900307
 30
0.0
 11
17420.43382993003
 21
-4408.301107900307
 31
0.0
  0
ARC
  5
42CF8
330
1F
100
AcDbEntity
  8
実線1
100
AcDbCircle
 10
17420.43382993003
 20
-4408.801107900307
 30
0.0
 40
0.5
100
AcDbArc
 50
90.0
 51
180.0
  0
LINE
  5
42CF9
330
1F
100
AcDbEntity
  8
実線1
100
AcDbLine
 10
17469.93382993003
 20
-4413.855368108255
 30
0.0
 11
17469.93382993003
 21
-4408.801107900307
 31
0.0
  0
ARC
  5
42CFA
330
1F
100
AcDbEntity
  8
実線1
100
AcDbCircle
 10
17469.43382993003
 20
-4408.801107900307
 30
0.0
 40
0.5
100
AcDbArc
 50
0.0
 51
90.0
  0
LINE
  5
42CFD
330
1F
100
AcDbEntity
  8
実線1
100
AcDbLine
 10
17419.93382993003
 20
-4408.801107900307
 30
0.0
 11
17419.93382993003
 21
-4409.951179533269
 31
0.0
  0
LINE
  5
42CFF
330
1F
100
AcDbEntity
  8
実線1
100
AcDbLine
 10
17469.93382993003
 20
-4431.301107900307
 30
0.0
 11
17469.93382993003
 21
-4429.855368108255
 31
0.0
  0
LINE
  5
42D05
330
1F
100
AcDbEntity
  8
実線1
100
AcDbLine
 10
17467.23382993003
 20
-4408.301107900307
 30
0.0
 11
17469.43382993003
 21
-4408.301107900307
 31
0.0
  0
LINE
  5
42D0B
330
1F
100
AcDbEntity
  8
実線1
100
AcDbLine
 10
17017.83384866983
 20
-4408.301107900307
 30
0.0
 11
16968.83382706903
 21
-4408.301107900307
 31
0.0
  0
LINE
  5
42D0D
330
1F
100
AcDbEntity
  8
実線1
100
AcDbLine
 10
16968.33382706903
 20
-4408.801107900307
 30
0.0
 11
16968.33382706903
 21
-4413.855368108255
 31
0.0
  0
ARC
  5
42D0E
330
1F
100
AcDbEntity
  8
実線1
100
AcDbCircle
 10
16968.83382706903
 20
-4408.801107900307
 30
0.0
 40
0.5
100
AcDbArc
 50
90.0
 51
180.0
  0
LINE
  5
42D0F
330
1F
100
AcDbEntity
  8
実線1
100
AcDbLine
 10
17011.33384866983
 20
-4450.301046469961
 30
0.0
 11
17011.33384866983
 21
-4449.701107900306
 31
0.0
  0
LINE
  5
42D11
330
1F
100
AcDbEntity
  8
実線1
100
AcDbLine
 10
17008.13384866983
 20
-4450.301046469962
 30
0.0
 11
17008.13384866983
 21
-4449.701107900308
 31
0.0
  0
LINE
  5
4301A
330
1F
100
AcDbEntity
  8
実線1
100
AcDbLine
 10
16802.43381540797
 20
-4543.748278566106
 30
0.0
 11
16802.43381540797
 21
-4555.464007318606
 31
0.0
  0
LINE
  5
4301B
330
1F
100
AcDbEntity
  8
実線1
100
AcDbLine
 10
16827.83381540797
 20
-4555.464007318606
 30
0.0
 11
16827.83381540797
 21
-4543.748278566106
 31
0.0
  0
LINE
  5
4301C
330
1F
100
AcDbEntity
  8
実線1
100
AcDbLine
 10
17610.43381540797
 20
-4542.764007318607
 30
0.0
 11
17583.73380195999
 21
-4542.764007318606
 31
0.0
  0
LINE
  5
4301D
330
1F
100
AcDbEntity
  8
実線1
100
AcDbLine
 10
16815.13381540798
 20
-4568.164007318606
 30
0.0
 11
16854.53382885598
 21
-4568.164007318605
 31
0.0
  0
LINE
  5
4301E
330
1F
100
AcDbEntity
  8
実線1
100
AcDbLine
 10
17610.43381540797
 20
-4543.748278566106
 30
0.0
 11
17610.43381540797
 21
-4555.464007318606
 31
0.0
  0
LINE
  5
4301F
330
1F
100
AcDbEntity
  8
実線1
100
AcDbLine
 10
17635.83381540797
 20
-4555.464007318606
 30
0.0
 11
17635.83381540797
 21
-4543.748278566106
 31
0.0
  0
LINE
  5
43021
330
1F
100
AcDbEntity
  8
実線1
100
AcDbLine
 10
16953.15757441327
 20
-4568.164007318606
 30
0.0
 11
16981.44184566078
 21
-4568.164007318606
 31
0.0
  0
LWPOLYLINE
  5
43022
330
1F
100
AcDbEntity
  8
実線1
100
AcDbPolyline
 90
        9
 70
   128
 43
0.0
 10
16815.13381540798
 20
-4508.887914253607
 10
16817.28012582607
 20
-4508.758741444407
 10
16819.36469080118
 20
-4508.374939083506
 10
16821.32754119438
 20
-4507.747548466006
 10
16823.11220937368
 20
-4506.894618477606
 10
16824.66735368467
 20
-4505.840686361206
 10
16825.94823545717
 20
-4504.616071825006
 10
16826.91800605467
 20
-4503.256004799406
 10
16827.11507367631
 20
-4502.800986292111
  0
ARC
  5
43024
330
1F
100
AcDbEntity
  8
実線1
100
AcDbCircle
 10
16815.13381540798
 20
-4555.464007318606
 30
0.0
 40
12.70000000000005
100
AcDbArc
 50
270.0
 51
0.0
  0
ARC
  5
43025
330
1F
100
AcDbEntity
  8
実線1
100
AcDbCircle
 10
16815.13381540798
 20
-4555.464007318606
 30
0.0
 40
12.70000000000005
100
AcDbArc
 50
180.0
 51
270.0
  0
LWPOLYLINE
  5
43026
330
1F
100
AcDbEntity
  8
実線1
100
AcDbPolyline
 90
        9
 70
   128
 43
0.0
 10
17623.13381540798
 20
-4508.887914253607
 10
17625.28012582607
 20
-4508.758741444407
 10
17627.36469080117
 20
-4508.374939083506
 10
17629.32754119437
 20
-4507.747548466006
 10
17631.11220937368
 20
-4506.894618477606
 10
17632.66735368467
 20
-4505.840686361206
 10
17633.94823545717
 20
-4504.616071825006
 10
17634.91800605467
 20
-4503.256004799406
 10
17635.1150478632
 20
-4502.801045893184
  0
ARC
  5
43028
330
1F
100
AcDbEntity
  8
実線1
100
AcDbCircle
 10
17623.13381540798
 20
-4555.464007318606
 30
0.0
 40
12.70000000000005
100
AcDbArc
 50
270.0
 51
0.0
  0
ARC
  5
43029
330
1F
100
AcDbEntity
  8
実線1
100
AcDbCircle
 10
17623.13381540798
 20
-4555.464007318606
 30
0.0
 40
12.70000000000005
100
AcDbArc
 50
180.0
 51
270.0
  0
LINE
  5
4302A
330
1F
100
AcDbEntity
  8
実線1
100
AcDbLine
 10
16802.43381540797
 20
-4543.748278566106
 30
0.0
 11
16802.44459706193
 21
-4502.800986313379
 31
0.0
  0
LINE
  5
4302B
330
1F
100
AcDbEntity
  8
実線1
100
AcDbLine
 10
16827.83381540797
 20
-4543.748278566106
 30
0.0
 11
16827.83381540797
 21
-4502.800986291492
 31
0.0
  0
LINE
  5
4302C
330
1F
100
AcDbEntity
  8
実線1
100
AcDbLine
 10
17635.83381540797
 20
-4543.748278566106
 30
0.0
 11
17635.82303376971
 21
-4502.801045894481
 31
0.0
  0
LINE
  5
4302D
330
1F
100
AcDbEntity
  8
実線1
100
AcDbLine
 10
17610.43381540797
 20
-4543.748278566106
 30
0.0
 11
17610.43381540797
 21
-4502.801045847994
 31
0.0
  0
LINE
  5
43031
330
1F
100
AcDbEntity
  8
実線1
100
AcDbLine
 10
16962.13381540798
 20
-4542.764007318607
 30
0.0
 11
16887.53382885597
 21
-4542.764007318606
 31
0.0
  0
LWPOLYLINE
  5
43035
330
1F
100
AcDbEntity
  8
実線1
100
AcDbPolyline
 90
        9
 70
   128
 43
0.0
 10
16803.15255714859
 20
-4502.800986312769
 10
16803.34962476128
 20
-4503.256004799406
 10
16804.31939535877
 20
-4504.616071825006
 10
16805.60027713128
 20
-4505.840686361206
 10
16807.15542144227
 20
-4506.894618477606
 10
16808.94008962158
 20
-4507.747548466006
 10
16810.90294001478
 20
-4508.374939083506
 10
16812.98750498988
 20
-4508.758741444407
 10
16815.13381540798
 20
-4508.887914253607
  0
LWPOLYLINE
  5
43039
330
1F
100
AcDbEntity
  8
実線1
100
AcDbPolyline
 90
        9
 70
   128
 43
0.0
 10
17611.15258293375
 20
-4502.80104584931
 10
17611.34962476128
 20
-4503.256004799406
 10
17612.31939535877
 20
-4504.616071825006
 10
17613.60027713128
 20
-4505.840686361206
 10
17615.15542144227
 20
-4506.894618477606
 10
17616.94008962157
 20
-4507.747548466006
 10
17618.90294001478
 20
-4508.374939083506
 10
17620.98750498988
 20
-4508.758741444407
 10
17623.13381540798
 20
-4508.887914253607
  0
LINE
  5
43180
330
1F
100
AcDbEntity
  8
実線1
100
AcDbLine
 10
17469.80423953723
 20
-4433.391366283848
 30
0.0
 11
17469.80423953723
 21
-4410.301107900307
 31
0.0
  0
LINE
  5
43181
330
1F
100
AcDbEntity
  8
実線1
100
AcDbLine
 10
17467.01295168983
 20
-4408.301107900307
 30
0.0
 11
17444.81295168983
 21
-4408.301107900307
 31
0.0
  0
ARC
  5
43183
330
1F
100
AcDbEntity
  8
実線1
100
AcDbCircle
 10
17467.01295168983
 20
-4411.301107900307
 30
0.0
 40
3.000000000000004
100
AcDbArc
 50
23.5781784782146
 51
90.0
  0
ARC
  5
43184
330
1F
100
AcDbEntity
  8
実線1
100
AcDbCircle
 10
17469.30423953723
 20
-4410.301107900307
 30
0.0
 40
0.5000000000000073
100
AcDbArc
 50
0.0
 51
23.5781784782146
  0
SPLINE
  5
43187
330
1F
100
AcDbEntity
  8
実線1
100
AcDbSpline
210
0.0
220
0.0
230
1.0
 70
     8
 71
     3
 72
    18
 73
    14
 74
     0
 42
0.0000000001
 43
0.0000000001
 40
0.0
 40
0.0
 40
0.0
 40
0.0
 40
0.0582083882414832
 40
0.1611676551102578
 40
0.2642084049017582
 40
0.367230526982826
 40
0.4701855354987767
 40
0.5730202296659736
 40
0.6756805467340619
 40
0.7781187449001286
 40
0.8803027609177174
 40
0.9765519658036744
 40
1.0
 40
1.0
 40
1.0
 40
1.0
 10
17466.86644344716
 20
-4435.638230917663
 30
0.0
 10
17466.94560986149
 20
-4435.636464403614
 30
0.0
 10
17467.16480619636
 20
-4435.631573271328
 30
0.0
 10
17467.52139535488
 20
-4435.579297036208
 30
0.0
 10
17467.92569570091
 20
-4435.466890468191
 30
0.0
 10
17468.30952659302
 20
-4435.301564754942
 30
0.0
 10
17468.66510717648
 20
-4435.087508868732
 30
0.0
 10
17468.98533330885
 20
-4434.828660614023
 30
0.0
 10
17469.26373837346
 20
-4434.530247519611
 30
0.0
 10
17469.49492560119
 20
-4434.198281320322
 30
0.0
 10
17469.670480838
 20
-4433.846060020661
 30
0.0
 10
17469.76243609756
 20
-4433.571992513306
 30
0.0
 10
17469.79739188896
 20
-4433.4209539182
 30
0.0
 10
17469.80423953723
 20
-4433.391366283848
 30
0.0
  0
SPLINE
  5
43188
330
1F
100
AcDbEntity
  8
実線1
100
AcDbSpline
210
0.0
220
0.0
230
1.0
 70
    24
 71
     1
 72
     4
 73
     2
 74
     0
 42
0.0000000001
 43
0.0000000001
 40
0.7878008488057077
 40
0.7878008488057077
 40
1.0
 40
1.0
 10
17457.50697898359
 20
-4435.638230917663
 30
0.0
 10
17466.86644344716
 20
-4435.638230917663
 30
0.0
  0
LINE
  5
4318A
330
1F
100
AcDbEntity
  8
実線1
100
AcDbLine
 10
16968.46936398487
 20
-4410.310238916485
 30
0.0
 11
16968.46936398487
 21
-4433.400497300025
 31
0.0
  0
LINE
  5
4318B
330
1F
100
AcDbEntity
  8
実線1
100
AcDbLine
 10
17015.66065183236
 20
-4408.310238916484
 30
0.0
 11
16993.46065183237
 21
-4408.310238916484
 31
0.0
  0
LINE
  5
4318C
330
1F
100
AcDbEntity
  8
実線1
100
AcDbLine
 10
16993.46065183237
 20
-4408.310238916484
 30
0.0
 11
16971.26065183236
 21
-4408.310238916484
 31
0.0
  0
ARC
  5
4318D
330
1F
100
AcDbEntity
  8
実線1
100
AcDbCircle
 10
16971.26065183236
 20
-4411.310238916485
 30
0.0
 40
3.000000000000004
100
AcDbArc
 50
90.0
 51
156.4218215217854
  0
ARC
  5
4318E
330
1F
100
AcDbEntity
  8
実線1
100
AcDbCircle
 10
16968.96936398486
 20
-4410.310238916485
 30
0.0
 40
0.5000000000000073
100
AcDbArc
 50
156.4218215217854
 51
180.0
  0
SPLINE
  5
43192
330
1F
100
AcDbEntity
  8
実線1
100
AcDbSpline
210
0.0
220
0.0
230
1.0
 70
    24
 71
     1
 72
     4
 73
     2
 74
     0
 42
0.0000000001
 43
0.0000000001
 40
0.0
 40
0.0
 40
0.212063737124575
 40
0.212063737124575
 10
16971.40716007493
 20
-4435.647361933842
 30
0.0
 10
16980.76065183236
 20
-4435.647361933842
 30
0.0
  0
SPLINE
  5
43193
330
1F
100
AcDbEntity
  8
実線1
100
AcDbSpline
210
0.0
220
0.0
230
1.0
 70
     8
 71
     3
 72
    18
 73
    14
 74
     0
 42
0.0000000001
 43
0.0000000001
 40
0.0
 40
0.0
 40
0.0
 40
0.0
 40
0.0589976043852301
 40
0.1603786279743262
 40
0.2618699934774579
 40
0.3635376339244512
 40
0.4654234195473945
 40
0.5675426597978154
 40
0.6698883104402595
 40
0.7724377768155472
 40
0.8751598223262064
 40
0.9727633070662641
 40
1.0
 40
1.0
 40
1.0
 40
1.0
 10
16968.46936398487
 20
-4433.400497300025
 30
0.0
 10
16968.48772072613
 20
-4433.474733353488
 30
0.0
 10
16968.53762154852
 20
-4433.676536062679
 30
0.0
 10
16968.66502680335
 20
-4433.993976668093
 30
0.0
 10
16968.8630159711
 20
-4434.34052071636
 30
0.0
 10
16969.11112565065
 20
-4434.65764618184
 30
0.0
 10
16969.40363067813
 20
-4434.939474049671
 30
0.0
 10
16969.73529524329
 20
-4435.180525316883
 30
0.0
 10
16970.09973745834
 20
-4435.376039050862
 30
0.0
 10
16970.49000527038
 20
-4435.522267440108
 30
0.0
 10
16970.89153939006
 20
-4435.61405195924
 30
0.0
 10
16971.20036109812
 20
-4435.64511343809
 30
0.0
 10
16971.37012275158
 20
-4435.646959232313
 30
0.0
 10
16971.40716007493
 20
-4435.647361933842
 30
0.0
  0
LINE
  5
4319D
330
1F
100
AcDbEntity
  8
実線1
100
AcDbLine
 10
16995.46065183236
 20
-4450.301046469962
 30
0.0
 11
16995.46065183236
 21
-4449.701107900306
 31
0.0
  0
LINE
  5
4319E
330
1F
100
AcDbEntity
  8
実線1
100
AcDbLine
 10
17005.46065183236
 20
-4449.701107900306
 30
0.0
 11
17005.46065183236
 21
-4450.301046469962
 31
0.0
  0
LINE
  5
431A2
330
1F
100
AcDbEntity
  8
実線1
100
AcDbLine
 10
16980.76065183236
 20
-4421.010238916485
 30
0.0
 11
16980.76065183236
 21
-4437.001107900306
 31
0.0
  0
ARC
  5
431A3
330
1F
100
AcDbEntity
  8
実線1
100
AcDbCircle
 10
16993.46065183237
 20
-4437.001107900306
 30
0.0
 40
12.70000000000027
100
AcDbArc
 50
180.0
 51
270.0
  0
ARC
  5
431A6
330
1F
100
AcDbEntity
  8
実線1
100
AcDbCircle
 10
17444.80697898359
 20
-4436.945982631388
 30
0.0
 40
12.70000000000027
100
AcDbArc
 50
270.0
 51
0.0
  0
LINE
  5
431A7
330
1F
100
AcDbEntity
  8
実線1
100
AcDbLine
 10
17457.50697898359
 20
-4420.955113647567
 30
0.0
 11
17457.50697898359
 21
-4436.945982631388
 31
0.0
  0
LINE
  5
431A8
330
1F
100
AcDbEntity
  8
実線1
100
AcDbLine
 10
16993.46065183237
 20
-4449.701107900306
 30
0.0
 11
17444.80697898359
 21
-4449.701107900306
 31
0.0
  0
LINE
  5
431A9
330
1F
100
AcDbEntity
  8
実線1
100
AcDbLine
 10
17006.16065183237
 20
-4424.301107900308
 30
0.0
 11
17432.10697898359
 21
-4424.301107900308
 31
0.0
  0
LINE
  5
431AA
330
1F
100
AcDbEntity
  8
実線1
100
AcDbLine
 10
17432.10697898359
 20
-4421.001107900307
 30
0.0
 11
17432.10697898359
 21
-4424.301107900308
 31
0.0
  0
LINE
  5
431AB
330
1F
100
AcDbEntity
  8
実線1
100
AcDbLine
 10
17006.16065183237
 20
-4421.010238916485
 30
0.0
 11
17006.16065183237
 21
-4424.301107900308
 31
0.0
  0
ARC
  5
431AC
330
1F
100
AcDbEntity
  8
実線1
100
AcDbCircle
 10
16993.46065183237
 20
-4421.010238916485
 30
0.0
 40
12.70000000000073
100
AcDbArc
 50
0.0
 51
180.0
  0
ARC
  5
431AD
330
1F
100
AcDbEntity
  8
実線1
100
AcDbCircle
 10
17444.81295168983
 20
-4421.001107900307
 30
0.0
 40
12.70597270624421
100
AcDbArc
 50
357.515332511356
 51
180.0
  0
LINE
  5
431AE
330
1F
100
AcDbEntity
  8
実線1
100
AcDbLine
 10
17419.82166384243
 20
-4424.301107900308
 30
0.0
 11
17419.82166384243
 21
-4410.301107900307
 31
0.0
  0
LINE
  5
431AF
330
1F
100
AcDbEntity
  8
実線1
100
AcDbLine
 10
17422.61295168983
 20
-4408.301107900307
 30
0.0
 11
17444.81295168983
 21
-4408.301107900307
 31
0.0
  0
ARC
  5
431B0
330
1F
100
AcDbEntity
  8
実線1
100
AcDbCircle
 10
17422.61295168983
 20
-4411.301107900307
 30
0.0
 40
3.000000000000004
100
AcDbArc
 50
90.0
 51
156.4218215217552
  0
ARC
  5
431B1
330
1F
100
AcDbEntity
  8
実線1
100
AcDbCircle
 10
17420.32166384243
 20
-4410.301107900307
 30
0.0
 40
0.5000000000000073
100
AcDbArc
 50
156.4218215217552
 51
180.0
  0
LINE
  5
431B4
330
1F
100
AcDbEntity
  8
実線1
100
AcDbLine
 10
17018.45193967987
 20
-4410.310238916485
 30
0.0
 11
17018.45193967987
 21
-4424.301107900308
 31
0.0
  0
LINE
  5
431B5
330
1F
100
AcDbEntity
  8
実線1
100
AcDbLine
 10
16993.46065183237
 20
-4408.310238916484
 30
0.0
 11
17015.66065183237
 21
-4408.310238916484
 31
0.0
  0
ARC
  5
431B6
330
1F
100
AcDbEntity
  8
実線1
100
AcDbCircle
 10
17015.66065183237
 20
-4411.310238916485
 30
0.0
 40
3.000000000000004
100
AcDbArc
 50
23.57817847824474
 51
90.0
  0
ARC
  5
431B7
330
1F
100
AcDbEntity
  8
実線1
100
AcDbCircle
 10
17017.95193967987
 20
-4410.310238916485
 30
0.0
 40
0.5000000000000073
100
AcDbArc
 50
0.0
 51
23.57817847824474
  0
LINE
  5
431C6
330
1F
100
AcDbEntity
  8
実線1
 48
2.5
100
AcDbLine
 10
16992.63384866983
 20
-4449.674165800058
 30
0.0
 11
16992.63384866983
 21
-4450.301046469962
 31
0.0
  0
LINE
  5
431C7
330
1F
100
AcDbEntity
  8
実線1
 48
2.5
100
AcDbLine
 10
16989.43384866983
 20
-4449.045810316316
 30
0.0
 11
16989.43384866983
 21
-4450.301046469962
 31
0.0
  0
ARC
  5
4322F
330
1F
100
AcDbEntity
  8
実線1
100
AcDbCircle
 10
16886.53382885598
 20
-4571.390274937465
 30
0.0
 40
1.0
100
AcDbArc
 50
270.0
 51
0.0
  0
ARC
  5
43230
330
1F
100
AcDbEntity
  8
実線1
100
AcDbCircle
 10
16886.53382885598
 20
-4539.537739699748
 30
0.0
 40
1.0
100
AcDbArc
 50
0.0
 51
90.0
  0
ARC
  5
43231
330
1F
100
AcDbEntity
  8
実線1
100
AcDbCircle
 10
16855.53382885598
 20
-4539.537739699748
 30
0.0
 40
1.0
100
AcDbArc
 50
90.0
 51
180.0
  0
ARC
  5
43232
330
1F
100
AcDbEntity
  8
実線1
100
AcDbCircle
 10
16855.53382885598
 20
-4571.390274937465
 30
0.0
 40
1.0
100
AcDbArc
 50
180.0
 51
270.0
  0
LINE
  5
43243
330
1F
100
AcDbEntity
  8
実線1
100
AcDbLine
 10
16854.53382885598
 20
-4545.09537891813
 30
0.0
 11
16854.53382885598
 21
-4544.386509995112
 31
0.0
  0
ARC
  5
43245
330
1F
100
AcDbEntity
  8
実線1
100
AcDbCircle
 10
16855.40882885598
 20
-4544.918602222834
 30
0.0
 40
0.8926785535679291
100
AcDbArc
 50
191.4217536589485
 51
278.0494669754645
  0
LINE
  5
43247
330
1F
100
AcDbEntity
  8
実線1
100
AcDbLine
 10
16855.53382885598
 20
-4545.802485699317
 30
0.0
 11
16886.53382885598
 21
-4545.802485699317
 31
0.0
  0
LINE
  5
43248
330
1F
100
AcDbEntity
  8
実線1
100
AcDbLine
 10
16887.53382885598
 20
-4544.386509995112
 30
0.0
 11
16887.53382885598
 21
-4545.09537891813
 31
0.0
  0
ARC
  5
43249
330
1F
100
AcDbEntity
  8
実線1
100
AcDbCircle
 10
16886.65882885598
 20
-4544.918602222834
 30
0.0
 40
0.8926785535678915
100
AcDbArc
 50
261.9505330245356
 51
348.5782463410515
  0
LINE
  5
4324A
330
1F
100
AcDbEntity
  8
実線1
100
AcDbLine
 10
16887.53382885598
 20
-4565.832635719083
 30
0.0
 11
16887.53382885598
 21
-4566.541504642102
 31
0.0
  0
ARC
  5
4324C
330
1F
100
AcDbEntity
  8
実線1
100
AcDbCircle
 10
16886.65882885598
 20
-4566.00941241438
 30
0.0
 40
0.8926785535679234
100
AcDbArc
 50
11.42175365894849
 51
98.04946697546448
  0
LINE
  5
4324E
330
1F
100
AcDbEntity
  8
実線1
100
AcDbLine
 10
16854.53382885598
 20
-4566.541504642102
 30
0.0
 11
16854.53382885598
 21
-4565.832635719083
 31
0.0
  0
ARC
  5
4324F
330
1F
100
AcDbEntity
  8
実線1
100
AcDbCircle
 10
16855.40882885598
 20
-4566.00941241438
 30
0.0
 40
0.8926785535679398
100
AcDbArc
 50
81.95053302453551
 51
168.5782463410515
  0
LINE
  5
43250
330
1F
100
AcDbEntity
  8
実線1
100
AcDbLine
 10
16886.53382885598
 20
-4565.125528937896
 30
0.0
 11
16855.53382885598
 21
-4565.125528937896
 31
0.0
  0
LINE
  5
43251
330
1F
100
AcDbEntity
  8
実線1
100
AcDbLine
 10
16854.53382885598
 20
-4544.386509995112
 30
0.0
 11
16854.53382885598
 21
-4540.801127470821
 31
0.0
  0
LINE
  5
43256
330
1F
100
AcDbEntity
  8
実線1
100
AcDbLine
 10
16887.53382885598
 20
-4540.801127470821
 30
0.0
 11
16887.53382885598
 21
-4544.386509995112
 31
0.0
  0
LINE
  5
4325C
330
1F
100
AcDbEntity
  8
実線1
100
AcDbLine
 10
16854.53382885598
 20
-4570.126887166392
 30
0.0
 11
16854.53382885598
 21
-4566.541504642102
 31
0.0
  0
LINE
  5
4325D
330
1F
100
AcDbEntity
  8
実線1
100
AcDbLine
 10
16887.53382885598
 20
-4566.541504642102
 30
0.0
 11
16887.53382885598
 21
-4570.126887166392
 31
0.0
  0
ARC
  5
43262
330
1F
100
AcDbEntity
  8
実線1
100
AcDbCircle
 10
16886.53508985205
 20
-4539.539003888129
 30
0.0
 40
0.9987398040174356
100
AcDbArc
 50
0.072524072657942
 51
90.0723409362406
  0
LINE
  5
43263
330
1F
100
AcDbEntity
  8
実線1
100
AcDbLine
 10
16887.53382885598
 20
-4539.537739699748
 30
0.0
 11
16887.53382885598
 21
-4540.801127470821
 31
0.0
  0
LINE
  5
43265
330
1F
100
AcDbEntity
  8
実線1
100
AcDbLine
 10
16886.53382885598
 20
-4538.540264880171
 30
0.0
 11
16855.53382885598
 21
-4538.540264880171
 31
0.0
  0
ARC
  5
43266
330
1F
100
AcDbEntity
  8
実線1
100
AcDbCircle
 10
16855.5325678599
 20
-4539.539003888129
 30
0.0
 40
0.9987398040174525
100
AcDbArc
 50
89.92765906375938
 51
179.927475927342
  0
LINE
  5
43267
330
1F
100
AcDbEntity
  8
実線1
100
AcDbLine
 10
16854.53382885598
 20
-4540.801127470821
 30
0.0
 11
16854.53382885598
 21
-4539.537739699748
 31
0.0
  0
LINE
  5
43269
330
1F
100
AcDbEntity
  8
実線1
100
AcDbLine
 10
16855.53382885598
 20
-4572.387749757043
 30
0.0
 11
16886.53382885598
 21
-4572.387749757043
 31
0.0
  0
ARC
  5
4326B
330
1F
100
AcDbEntity
  8
実線1
100
AcDbCircle
 10
16855.5325678599
 20
-4571.389010749084
 30
0.0
 40
0.998739804017495
100
AcDbArc
 50
180.0725240726579
 51
270.0723409362406
  0
LINE
  5
4326C
330
1F
100
AcDbEntity
  8
実線1
100
AcDbLine
 10
16854.53382885598
 20
-4571.390274937465
 30
0.0
 11
16854.53382885598
 21
-4570.126887166392
 31
0.0
  0
ARC
  5
4326D
330
1F
100
AcDbEntity
  8
実線1
100
AcDbCircle
 10
16886.53508985205
 20
-4571.389010749084
 30
0.0
 40
0.9987398040174383
100
AcDbArc
 50
269.9276590637594
 51
359.927475927342
  0
LINE
  5
4326E
330
1F
100
AcDbEntity
  8
実線1
100
AcDbLine
 10
16887.53382885598
 20
-4570.126887166392
 30
0.0
 11
16887.53382885598
 21
-4571.390274937465
 31
0.0
  0
LINE
  5
43277
330
1F
100
AcDbEntity
  8
実線1
100
AcDbLine
 10
16886.53382885598
 20
-4572.390274937466
 30
0.0
 11
16886.53382885598
 21
-4572.387749757043
 31
0.0
  0
LINE
  5
43278
330
1F
100
AcDbEntity
  8
実線1
100
AcDbLine
 10
16886.53382885598
 20
-4538.540264880171
 30
0.0
 11
16886.53382885598
 21
-4538.537739699748
 31
0.0
  0
LINE
  5
43279
330
1F
100
AcDbEntity
  8
実線1
100
AcDbLine
 10
16855.53382885598
 20
-4538.537739699748
 30
0.0
 11
16855.53382885598
 21
-4538.540264880171
 31
0.0
  0
LINE
  5
4327A
330
1F
100
AcDbEntity
  8
実線1
100
AcDbLine
 10
16855.53382885598
 20
-4572.387749757043
 30
0.0
 11
16855.53382885598
 21
-4572.390274937466
 31
0.0
  0
LINE
  5
43282
330
1F
100
AcDbEntity
  8
実線1
100
AcDbLine
 10
16887.53382885598
 20
-4568.164007318606
 30
0.0
 11
17550.73380195999
 21
-4568.164007318607
 31
0.0
  0
LINE
  5
43283
330
1F
100
AcDbEntity
  8
実線1
100
AcDbLine
 10
16854.53382885598
 20
-4542.764007318607
 30
0.0
 11
16827.83381540797
 21
-4542.764007318607
 31
0.0
  0
ARC
  5
43284
330
1F
100
AcDbEntity
  8
実線1
100
AcDbCircle
 10
17582.73380195999
 20
-4571.390274937465
 30
0.0
 40
1.0
100
AcDbArc
 50
270.0
 51
0.0
  0
ARC
  5
43285
330
1F
100
AcDbEntity
  8
実線1
100
AcDbCircle
 10
17582.73380195999
 20
-4539.537739699748
 30
0.0
 40
1.0
100
AcDbArc
 50
0.0
 51
90.0
  0
ARC
  5
43286
330
1F
100
AcDbEntity
  8
実線1
100
AcDbCircle
 10
17551.73380195999
 20
-4539.537739699748
 30
0.0
 40
1.0
100
AcDbArc
 50
90.0
 51
180.0
  0
ARC
  5
43287
330
1F
100
AcDbEntity
  8
実線1
100
AcDbCircle
 10
17551.73380195999
 20
-4571.390274937465
 30
0.0
 40
1.0
100
AcDbArc
 50
180.0
 51
270.0
  0
LINE
  5
43288
330
1F
100
AcDbEntity
  8
実線1
100
AcDbLine
 10
17550.73380195999
 20
-4545.09537891813
 30
0.0
 11
17550.73380195999
 21
-4544.386509995112
 31
0.0
  0
ARC
  5
43289
330
1F
100
AcDbEntity
  8
実線1
100
AcDbCircle
 10
17551.60880195999
 20
-4544.918602222834
 30
0.0
 40
0.8926785535679291
100
AcDbArc
 50
191.4217536589489
 51
278.0494669754655
  0
LINE
  5
4328A
330
1F
100
AcDbEntity
  8
実線1
100
AcDbLine
 10
17551.73380195999
 20
-4545.802485699317
 30
0.0
 11
17582.73380195999
 21
-4545.802485699317
 31
0.0
  0
LINE
  5
4328B
330
1F
100
AcDbEntity
  8
実線1
100
AcDbLine
 10
17583.73380195999
 20
-4544.386509995112
 30
0.0
 11
17583.73380195999
 21
-4545.09537891813
 31
0.0
  0
ARC
  5
4328C
330
1F
100
AcDbEntity
  8
実線1
100
AcDbCircle
 10
17582.85880195999
 20
-4544.918602222834
 30
0.0
 40
0.8926785535678915
100
AcDbArc
 50
261.9505330245345
 51
348.5782463410511
  0
LINE
  5
4328D
330
1F
100
AcDbEntity
  8
実線1
100
AcDbLine
 10
17583.73380195999
 20
-4565.832635719083
 30
0.0
 11
17583.73380195999
 21
-4566.541504642102
 31
0.0
  0
ARC
  5
4328E
330
1F
100
AcDbEntity
  8
実線1
100
AcDbCircle
 10
17582.85880195999
 20
-4566.00941241438
 30
0.0
 40
0.8926785535679234
100
AcDbArc
 50
11.42175365894893
 51
98.04946697546549
  0
LINE
  5
4328F
330
1F
100
AcDbEntity
  8
実線1
100
AcDbLine
 10
17550.73380195999
 20
-4566.541504642102
 30
0.0
 11
17550.73380195999
 21
-4565.832635719083
 31
0.0
  0
ARC
  5
43290
330
1F
100
AcDbEntity
  8
実線1
100
AcDbCircle
 10
17551.60880195999
 20
-4566.00941241438
 30
0.0
 40
0.8926785535679398
100
AcDbArc
 50
81.95053302453452
 51
168.578246341051
  0
LINE
  5
43291
330
1F
100
AcDbEntity
  8
実線1
100
AcDbLine
 10
17582.73380195999
 20
-4565.125528937896
 30
0.0
 11
17551.73380195999
 21
-4565.125528937896
 31
0.0
  0
LINE
  5
43292
330
1F
100
AcDbEntity
  8
実線1
100
AcDbLine
 10
17550.73380195999
 20
-4544.386509995112
 30
0.0
 11
17550.73380195999
 21
-4540.801127470821
 31
0.0
  0
LINE
  5
43293
330
1F
100
AcDbEntity
  8
実線1
100
AcDbLine
 10
17583.73380195999
 20
-4540.801127470821
 30
0.0
 11
17583.73380195999
 21
-4544.386509995112
 31
0.0
  0
LINE
  5
43294
330
1F
100
AcDbEntity
  8
実線1
100
AcDbLine
 10
17550.73380195999
 20
-4570.126887166392
 30
0.0
 11
17550.73380195999
 21
-4566.541504642102
 31
0.0
  0
LINE
  5
43295
330
1F
100
AcDbEntity
  8
実線1
100
AcDbLine
 10
17583.73380195999
 20
-4566.541504642102
 30
0.0
 11
17583.73380195999
 21
-4570.126887166392
 31
0.0
  0
ARC
  5
43296
330
1F
100
AcDbEntity
  8
実線1
100
AcDbCircle
 10
17582.73506295606
 20
-4539.539003888129
 30
0.0
 40
0.9987398040174356
100
AcDbArc
 50
0.0725240726579442
 51
90.07234093624061
  0
LINE
  5
43297
330
1F
100
AcDbEntity
  8
実線1
100
AcDbLine
 10
17583.73380195999
 20
-4539.537739699748
 30
0.0
 11
17583.73380195999
 21
-4540.801127470821
 31
0.0
  0
LINE
  5
43298
330
1F
100
AcDbEntity
  8
実線1
100
AcDbLine
 10
17582.73380195999
 20
-4538.540264880171
 30
0.0
 11
17551.73380195999
 21
-4538.540264880171
 31
0.0
  0
ARC
  5
43299
330
1F
100
AcDbEntity
  8
実線1
100
AcDbCircle
 10
17551.73254096391
 20
-4539.539003888129
 30
0.0
 40
0.9987398040174525
100
AcDbArc
 50
89.92765906375938
 51
179.927475927342
  0
LINE
  5
4329A
330
1F
100
AcDbEntity
  8
実線1
100
AcDbLine
 10
17550.73380195999
 20
-4540.801127470821
 30
0.0
 11
17550.73380195999
 21
-4539.537739699748
 31
0.0
  0
LINE
  5
4329B
330
1F
100
AcDbEntity
  8
実線1
100
AcDbLine
 10
17551.73380195999
 20
-4572.387749757043
 30
0.0
 11
17582.73380195999
 21
-4572.387749757043
 31
0.0
  0
ARC
  5
4329C
330
1F
100
AcDbEntity
  8
実線1
100
AcDbCircle
 10
17551.73254096391
 20
-4571.389010749084
 30
0.0
 40
0.998739804017495
100
AcDbArc
 50
180.0725240726579
 51
270.0723409362406
  0
LINE
  5
4329D
330
1F
100
AcDbEntity
  8
実線1
100
AcDbLine
 10
17550.73380195999
 20
-4571.390274937465
 30
0.0
 11
17550.73380195999
 21
-4570.126887166392
 31
0.0
  0
ARC
  5
4329E
330
1F
100
AcDbEntity
  8
実線1
100
AcDbCircle
 10
17582.73506295606
 20
-4571.389010749084
 30
0.0
 40
0.9987398040174383
100
AcDbArc
 50
269.9276590637594
 51
359.927475927342
  0
LINE
  5
4329F
330
1F
100
AcDbEntity
  8
実線1
100
AcDbLine
 10
17583.73380195999
 20
-4570.126887166392
 30
0.0
 11
17583.73380195999
 21
-4571.390274937465
 31
0.0
  0
LINE
  5
432A0
330
1F
100
AcDbEntity
  8
実線1
100
AcDbLine
 10
17582.73380195999
 20
-4572.390274937466
 30
0.0
 11
17582.73380195999
 21
-4572.387749757043
 31
0.0
  0
LINE
  5
432A1
330
1F
100
AcDbEntity
  8
実線1
100
AcDbLine
 10
17582.73380195999
 20
-4538.540264880171
 30
0.0
 11
17582.73380195999
 21
-4538.537739699748
 31
0.0
  0
LINE
  5
432A2
330
1F
100
AcDbEntity
  8
実線1
100
AcDbLine
 10
17551.73380195999
 20
-4538.537739699748
 30
0.0
 11
17551.73380195999
 21
-4538.540264880171
 31
0.0
  0
LINE
  5
432A3
330
1F
100
AcDbEntity
  8
実線1
100
AcDbLine
 10
17551.73380195999
 20
-4572.387749757043
 30
0.0
 11
17551.73380195999
 21
-4572.390274937466
 31
0.0
  0
LINE
  5
432A4
330
1F
100
AcDbEntity
  8
実線1
100
AcDbLine
 10
17550.73380195998
 20
-4542.764007318606
 30
0.0
 11
17476.13381540798
 21
-4542.764007318607
 31
0.0
  0
LINE
  5
432A5
330
1F
100
AcDbEntity
  8
実線1
100
AcDbLine
 10
17583.73380195999
 20
-4568.164007318607
 30
0.0
 11
17623.13381540798
 21
-4568.164007318606
 31
0.0
  0
LINE
  5
432E6
330
1F
100
AcDbEntity
  8
実線1
100
AcDbLine
 10
16967.86936398487
 20
-4413.855368108255
 30
0.0
 11
16968.46936398487
 21
-4413.855368108255
 31
0.0
  0
LINE
  5
432E7
330
1F
100
AcDbEntity
  8
実線1
100
AcDbLine
 10
16968.46936398487
 20
-4413.855368108255
 30
0.0
 11
16968.46936398487
 21
-4429.855368108255
 31
0.0
  0
LINE
  5
432E8
330
1F
100
AcDbEntity
  8
実線1
100
AcDbLine
 10
16966.46936398486
 20
-4414.855368108256
 30
0.0
 11
16967.86936398487
 21
-4413.855368108255
 31
0.0
  0
LINE
  5
432EA
330
1F
100
AcDbEntity
  8
実線1
100
AcDbLine
 10
16966.46936398486
 20
-4414.855368108256
 30
0.0
 11
16966.46936398486
 21
-4428.855368108256
 31
0.0
  0
LINE
  5
432EB
330
1F
100
AcDbEntity
  8
実線1
100
AcDbLine
 10
16967.86936398487
 20
-4429.855368108255
 30
0.0
 11
16968.46936398487
 21
-4429.855368108255
 31
0.0
  0
LINE
  5
432EC
330
1F
100
AcDbEntity
  8
実線1
100
AcDbLine
 10
16966.46936398486
 20
-4428.855368108256
 30
0.0
 11
16967.86936398487
 21
-4429.855368108255
 31
0.0
  0
LINE
  5
432F3
330
1F
100
AcDbEntity
  8
実線1
100
AcDbLine
 10
16967.86936398487
 20
-4413.855368108255
 30
0.0
 11
16967.86936398487
 21
-4429.855368108255
 31
0.0
  0
LINE
  5
432F9
330
1F
100
AcDbEntity
  8
実線1
100
AcDbLine
 10
17019.05193967987
 20
-4413.855368108255
 30
0.0
 11
17018.45193967987
 21
-4413.855368108255
 31
0.0
  0
LINE
  5
432FA
330
1F
100
AcDbEntity
  8
実線1
100
AcDbLine
 10
17018.45193967987
 20
-4413.855368108255
 30
0.0
 11
17018.45193967987
 21
-4424.301107900308
 31
0.0
  0
LINE
  5
432FB
330
1F
100
AcDbEntity
  8
実線1
100
AcDbLine
 10
17020.45193967987
 20
-4414.855368108256
 30
0.0
 11
17019.05193967987
 21
-4413.855368108255
 31
0.0
  0
LINE
  5
432FC
330
1F
100
AcDbEntity
  8
実線1
100
AcDbLine
 10
17020.45193967987
 20
-4414.855368108256
 30
0.0
 11
17020.45193967987
 21
-4424.301107900308
 31
0.0
  0
LINE
  5
432FF
330
1F
100
AcDbEntity
  8
実線1
100
AcDbLine
 10
17019.05193967987
 20
-4413.855368108255
 30
0.0
 11
17019.05193967987
 21
-4424.301107900308
 31
0.0
  0
LINE
  5
43300
330
1F
100
AcDbEntity
  8
実線1
100
AcDbLine
 10
17470.40423953743
 20
-4413.855368108255
 30
0.0
 11
17469.80423953743
 21
-4413.855368108255
 31
0.0
  0
LINE
  5
43301
330
1F
100
AcDbEntity
  8
実線1
100
AcDbLine
 10
17469.80423953743
 20
-4413.855368108255
 30
0.0
 11
17469.80423953743
 21
-4429.855368108255
 31
0.0
  0
LINE
  5
43302
330
1F
100
AcDbEntity
  8
実線1
100
AcDbLine
 10
17471.80423953743
 20
-4414.855368108256
 30
0.0
 11
17470.40423953743
 21
-4413.855368108255
 31
0.0
  0
LINE
  5
43303
330
1F
100
AcDbEntity
  8
実線1
100
AcDbLine
 10
17471.80423953743
 20
-4414.855368108256
 30
0.0
 11
17471.80423953743
 21
-4428.855368108256
 31
0.0
  0
LINE
  5
43304
330
1F
100
AcDbEntity
  8
実線1
100
AcDbLine
 10
17470.40423953743
 20
-4429.855368108255
 30
0.0
 11
17469.80423953743
 21
-4429.855368108255
 31
0.0
  0
LINE
  5
43305
330
1F
100
AcDbEntity
  8
実線1
100
AcDbLine
 10
17471.80423953743
 20
-4428.855368108256
 30
0.0
 11
17470.40423953743
 21
-4429.855368108255
 31
0.0
  0
LINE
  5
43306
330
1F
100
AcDbEntity
  8
実線1
100
AcDbLine
 10
17470.40423953743
 20
-4413.855368108255
 30
0.0
 11
17470.40423953743
 21
-4429.855368108255
 31
0.0
  0
LINE
  5
43307
330
1F
100
AcDbEntity
  8
実線1
100
AcDbLine
 10
17419.22166384243
 20
-4413.855368108255
 30
0.0
 11
17419.82166384243
 21
-4413.855368108255
 31
0.0
  0
LINE
  5
43308
330
1F
100
AcDbEntity
  8
実線1
100
AcDbLine
 10
17419.82166384243
 20
-4413.855368108255
 30
0.0
 11
17419.82166384243
 21
-4424.301107900308
 31
0.0
  0
LINE
  5
43309
330
1F
100
AcDbEntity
  8
実線1
100
AcDbLine
 10
17417.82166384243
 20
-4414.855368108256
 30
0.0
 11
17419.22166384243
 21
-4413.855368108255
 31
0.0
  0
LINE
  5
4330A
330
1F
100
AcDbEntity
  8
実線1
100
AcDbLine
 10
17417.82166384243
 20
-4414.855368108256
 30
0.0
 11
17417.82166384243
 21
-4424.301107900308
 31
0.0
  0
LINE
  5
4330B
330
1F
100
AcDbEntity
  8
実線1
100
AcDbLine
 10
17419.22166384243
 20
-4413.855368108255
 30
0.0
 11
17419.22166384243
 21
-4424.301107900308
 31
0.0
  0
VIEWPORT
  5
2D9DF
102
{ACAD_XDICTIONARY
360
43326
102
}
330
2D9D8
100
AcDbEntity
 67
     1
  8
0
100
AcDbViewport
 10
5.615416399137242
 20
3.902083231708196
 30
0.0
 40
13.42559284170602
 41
8.746133096049151
 68
     1
 69
     1
 12
5.615416399137242
 22
3.902083231708196
 13
0.0
 23
0.0
 14
10.0
 24
10.0
 15
10.0
 25
10.0
 16
0.0
 26
0.0
 36
1.0
 17
0.0
 27
0.0
 37
0.0
 42
50.0
 43
0.0
 44
0.0
 45
8.746133096049151
 50
0.0
 51
0.0
 72
   100
 90
    32800
  1

281
     0
 71
     1
 74
     0
110
0.0
120
0.0
130
0.0
111
1.0
121
0.0
131
0.0
112
0.0
122
1.0
132
0.0
 79
     0
146
0.0
  0
ENDSEC
  0
SECTION
  2
OBJECTS
  0
DICTIONARY
  5
C
330
0
100
AcDbDictionary
281
     1
  3
ACAD_COLOR
350
32ECD
  3
ACAD_GROUP
350
D
  3
ACAD_LAYOUT
350
1A
  3
ACAD_MATERIAL
350
32EA3
  3
ACAD_MLEADERSTYLE
350
32EF2
  3
ACAD_MLINESTYLE
350
17
  3
ACAD_PLOTSETTINGS
350
19
  3
ACAD_PLOTSTYLENAME
350
E
  3
ACAD_SCALELIST
350
32ED0
  3
ACAD_TABLESTYLE
350
32ECE
  3
ACAD_VISUALSTYLE
350
32EBC
  3
AcadDim
350
412C9
  3
ACDB_RECOMPOSE_DATA
350
32F2B
  3
AcDbVariableDictionary
350
22A9
  3
DWGPROPS
350
43321
  0
DICTIONARY
  5
3779A
330
8
100
AcDbDictionary
280
     1
281
     1
  0
DICTIONARY
  5
2E0D5
330
2
100
AcDbDictionary
280
     1
281
     1
  3
ACAD_LAYERFILTERS
360
2E26B
  3
ACAD_LAYERSTATES
360
2E0D6
  0
DICTIONARY
  5
32EF9
330
10
100
AcDbDictionary
280
     1
281
     1
  3
ADSK_XREC_LAYER_RECONCILED
360
32EFA
  0
DICTIONARY
  5
32EFB
330
53
100
AcDbDictionary
280
     1
281
     1
  3
ADSK_XREC_LAYER_RECONCILED
360
32EFC
  0
DICTIONARY
  5
32EFD
330
4ED
100
AcDbDictionary
280
     1
281
     1
  3
ADSK_XREC_LAYER_RECONCILED
360
32EFE
  0
DICTIONARY
  5
32EFF
330
1795
100
AcDbDictionary
280
     1
281
     1
  3
ADSK_XREC_LAYER_RECONCILED
360
32F00
  0
DICTIONARY
  5
32F01
330
1797
100
AcDbDictionary
280
     1
281
     1
  3
ADSK_XREC_LAYER_RECONCILED
360
32F02
  0
DICTIONARY
  5
32F03
330
16A75
100
AcDbDictionary
280
     1
281
     1
  3
ADSK_XREC_LAYER_RECONCILED
360
32F04
  0
DICTIONARY
  5
32F05
330
22FC4
100
AcDbDictionary
280
     1
281
     1
  3
ADSK_XREC_LAYER_RECONCILED
360
32F06
  0
DICTIONARY
  5
32F07
330
299F1
100
AcDbDictionary
280
     1
281
     1
  3
ADSK_XREC_LAYER_RECONCILED
360
32F08
  0
DICTIONARY
  5
32F09
330
2E26C
100
AcDbDictionary
280
     1
281
     1
  3
ADSK_XREC_LAYER_RECONCILED
360
32F0A
  0
DICTIONARY
  5
33224
330
33223
100
AcDbDictionary
280
     1
281
     1
  0
DICTIONARY
  5
373E5
330
373E4
100
AcDbDictionary
280
     1
281
     1
  0
DICTIONARY
  5
373E7
330
373E6
100
AcDbDictionary
280
     1
281
     1
  0
DICTIONARY
  5
37817
330
37816
100
AcDbDictionary
280
     1
281
     1
  0
DICTIONARY
  5
37819
330
37818
100
AcDbDictionary
280
     1
281
     1
  0
DICTIONARY
  5
37979
330
37978
100
AcDbDictionary
280
     1
281
     1
  0
DICTIONARY
  5
38B22
330
38B21
100
AcDbDictionary
280
     1
281
     1
  0
DICTIONARY
  5
3D4D3
330
3D4D2
100
AcDbDictionary
280
     1
281
     1
  0
DICTIONARY
  5
366E8
330
1F
100
AcDbDictionary
280
     1
281
     1
  3
ACAD_SORTENTS
360
366E9
  0
DICTIONARY
  5
43326
330
2D9DF
100
AcDbDictionary
280
     1
281
     1
  3
ACAD_XREC_ROUNDTRIP
360
43327
  0
DICTIONARY
  5
32ECD
102
{ACAD_REACTORS
330
C
102
}
330
C
100
AcDbDictionary
281
     1
  0
DICTIONARY
  5
D
102
{ACAD_REACTORS
330
C
102
}
330
C
100
AcDbDictionary
281
     1
  3
*A1
350
28C19
  3
*A10
350
37125
  3
*A11
350
29128
  3
*A12
350
32276
  3
*A13
350
28C1B
  3
*A14
350
32BC6
  3
*A15
350
29320
  3
*A16
350
3D3E6
  3
*A17
350
292AB
  3
*A18
350
2CF82
  3
*A19
350
295B7
  3
*A2
350
32D33
  3
*A20
350
28EBB
  3
*A21
350
32723
  3
*A22
350
37126
  3
*A23
350
28C1C
  3
*A24
350
29808
  3
*A25
350
3D6B8
  3
*A26
350
325B8
  3
*A27
350
32EA0
  3
*A28
350
2920A
  3
*A29
350
28C2E
  3
*A3
350
28F0D
  3
*A30
350
28C1D
  3
*A4
350
3244D
  3
*A5
350
40859
  3
*A6
350
4085A
  3
*A7
350
3E456
  3
*A8
350
3EED8
  3
*A9
350
40B4E
  0
DICTIONARY
  5
1A
102
{ACAD_REACTORS
330
C
102
}
330
C
100
AcDbDictionary
281
     1
  3
Model
350
22
  3
ﾚｲｱｳﾄ1
350
2D9D9
  0
DICTIONARY
  5
32EA3
102
{ACAD_REACTORS
330
C
102
}
330
C
100
AcDbDictionary
281
     1
  3
ByBlock
350
32EAC
  3
ByLayer
350
32EA4
  3
Global
350
32EB4
  0
DICTIONARY
  5
32EF2
102
{ACAD_REACTORS
330
C
102
}
330
C
100
AcDbDictionary
281
     1
  3
1-1
350
33201
  3
Standard
350
32EF3
  0
DICTIONARY
  5
17
102
{ACAD_REACTORS
330
C
102
}
330
C
100
AcDbDictionary
281
     1
  3
Standard
350
18
  0
DICTIONARY
  5
19
102
{ACAD_REACTORS
330
C
102
}
330
C
100
AcDbDictionary
281
     1
  0
ACDBDICTIONARYWDFLT
  5
E
102
{ACAD_REACTORS
330
C
102
}
330
C
100
AcDbDictionary
281
     1
  3
Normal
350
F
100
AcDbDictionaryWithDefault
340
F
  0
DICTIONARY
  5
32ED0
102
{ACAD_REACTORS
330
C
102
}
330
C
100
AcDbDictionary
281
     1
  3
A0
350
32ED1
  3
A1
350
32FB3
  3
A2
350
32FB4
  3
A3
350
32FB5
  3
A4
350
32FB6
  3
A5
350
32FB7
  3
A6
350
32FB8
  3
A7
350
32FB9
  3
A8
350
32FBA
  3
A9
350
32FBB
  3
B0
350
32FBC
  3
B1
350
32FBD
  3
B2
350
32FBE
  3
B3
350
32FBF
  3
B4
350
32FC0
  3
B5
350
32FC1
  3
B6
350
32FC2
  3
B7
350
32FC3
  3
B8
350
32FC4
  3
B9
350
32FC5
  3
C0
350
32FC6
  3
C1
350
32FC7
  3
C2
350
32FC8
  3
C3
350
32FC9
  3
C4
350
32FCA
  3
C5
350
32FCB
  3
C6
350
32FCC
  3
C7
350
32FCD
  3
C8
350
32FCE
  3
C9
350
32FCF
  3
D0
350
32FD0
  3
D1
350
32FD1
  3
D2
350
32FD2
  0
DICTIONARY
  5
32ECE
102
{ACAD_REACTORS
330
C
102
}
330
C
100
AcDbDictionary
281
     1
  3
Standard
350
32ECF
  0
DICTIONARY
  5
32EBC
102
{ACAD_REACTORS
330
C
102
}
330
C
100
AcDbDictionary
281
     1
  3
2dWireframe
350
32EC2
  3
3D Hidden
350
32EC4
  3
3dWireframe
350
32EC3
  3
Basic
350
32EC1
  3
Brighten
350
32EC8
  3
ColorChange
350
32ECC
  3
Conceptual
350
32EC5
  3
Dim
350
32EC7
  3
Facepattern
350
32ECB
  3
Flat
350
32EBD
  3
FlatWithEdges
350
32EBE
  3
Gouraud
350
32EBF
  3
GouraudWithEdges
350
32EC0
  3
Linepattern
350
32ECA
  3
Realistic
350
32EC6
  3
Thicken
350
32EC9
  0
XRECORD
  5
412C9
102
{ACAD_REACTORS
330
C
102
}
330
C
100
AcDbXrecord
280
     1
 90
   990106
  3

 60
     0
 61
     0
 62
     1
 63
     3
 64
     0
 65
     0
 66
     0
 67
     3
 68
     1
 69
     0
 70
     0
 71
     0
 72
     0
 40
0.0
170
     0
  0
XRECORD
  5
32F2B
102
{ACAD_REACTORS
330
C
102
}
330
C
100
AcDbXrecord
280
     1
 90
        1
330
32ECF
  0
DICTIONARY
  5
22A9
102
{ACAD_REACTORS
330
C
102
}
330
C
100
AcDbDictionary
281
     1
  3
CANNOSCALE
350
32F2F
  3
CMLEADERSTYLE
350
32F2D
  3
CTABLESTYLE
350
32F2C
  3
DIMASSOC
350
29F7A
  3
INDEXCTL
350
377AE
  3
LAYEREVAL
350
32F31
  3
LAYERNOTIFY
350
32F32
  3
LIGHTINGUNITS
350
32F30
  3
MSLTSCALE
350
32F2E
  3
SORTENTS
350
22AA
  0
XRECORD
  5
43321
102
{ACAD_REACTORS
330
C
102
}
330
C
100
AcDbXrecord
280
     1
  1
DWGPROPS COOKIE
  2

  3

  4

  6

  7

  8
UZ22771
  9

300
=
301
=
302
=
303
=
304
=
305
=
306
=
307
=
308
=
309
=
 40
17.81366765046296
 41
2452142.733021112
 42
2455047.4306511
  1

 90
        0
  0
DICTIONARY
  5
2E26B
102
{ACAD_REACTORS
330
2E0D5
102
}
330
2E0D5
100
AcDbDictionary
280
     1
281
     1
  0
DICTIONARY
  5
2E0D6
102
{ACAD_REACTORS
330
2E0D5
102
}
330
2E0D5
100
AcDbDictionary
281
     1
  0
XRECORD
  5
32EFA
102
{ACAD_REACTORS
330
32EF9
102
}
330
32EF9
100
AcDbXrecord
280
     1
290
     1
  0
XRECORD
  5
32EFC
102
{ACAD_REACTORS
330
32EFB
102
}
330
32EFB
100
AcDbXrecord
280
     1
290
     1
  0
XRECORD
  5
32EFE
102
{ACAD_REACTORS
330
32EFD
102
}
330
32EFD
100
AcDbXrecord
280
     1
290
     1
  0
XRECORD
  5
32F00
102
{ACAD_REACTORS
330
32EFF
102
}
330
32EFF
100
AcDbXrecord
280
     1
290
     1
  0
XRECORD
  5
32F02
102
{ACAD_REACTORS
330
32F01
102
}
330
32F01
100
AcDbXrecord
280
     1
290
     1
  0
XRECORD
  5
32F04
102
{ACAD_REACTORS
330
32F03
102
}
330
32F03
100
AcDbXrecord
280
     1
290
     1
  0
XRECORD
  5
32F06
102
{ACAD_REACTORS
330
32F05
102
}
330
32F05
100
AcDbXrecord
280
     1
290
     1
  0
XRECORD
  5
32F08
102
{ACAD_REACTORS
330
32F07
102
}
330
32F07
100
AcDbXrecord
280
     1
290
     1
  0
XRECORD
  5
32F0A
102
{ACAD_REACTORS
330
32F09
102
}
330
32F09
100
AcDbXrecord
280
     1
290
     1
  0
SORTENTSTABLE
  5
366E9
102
{ACAD_REACTORS
330
366E8
102
}
330
366E8
100
AcDbSortentsTable
330
1F
331
43288
  5
4328A
331
431C7
  5
42CF2
331
43289
  5
4328B
331
4328A
  5
4328C
331
4328B
  5
4328D
331
4328C
  5
4328E
331
43256
  5
4325F
331
4328D
  5
4328F
331
4328E
  5
43290
331
43277
  5
4327B
331
4328F
  5
43291
331
43290
  5
43292
331
43291
  5
43293
331
43292
  5
43294
331
4325C
  5
43264
331
43293
  5
43295
331
4325D
  5
43265
331
43294
  5
43296
331
43295
  5
43297
331
4301A
  5
4301D
331
43296
  5
43298
331
4301B
  5
4301E
331
43297
  5
43299
331
4301C
  5
4301F
331
4301D
  5
43023
331
4301E
  5
4302A
331
42AF0
  5
42AF0
331
4301F
  5
4302B
331
42AF1
  5
42AF1
331
42AF2
  5
42AF2
331
43021
  5
43036
331
42B29
  5
42B29
331
42AF3
  5
42AF3
331
43022
  5
43037
331
42B2A
  5
42B2A
331
42AF4
  5
42AF4
331
42B88
  5
42B88
331
42B2B
  5
42B2B
331
42AF5
  5
42AF5
331
43024
  5
43039
331
42BA0
  5
42BA0
331
42B89
  5
42B89
331
42B2C
  5
42B2C
331
42AF6
  5
42AF6
331
43025
  5
4303A
331
42B8A
  5
42B8A
331
42B2D
  5
42B2D
331
42AF7
  5
42AF7
331
43026
  5
4303B
331
42B8B
  5
42B8B
331
42B2E
  5
42B2E
331
42AF8
  5
42AF8
331
42B8C
  5
42B8C
331
42B2F
  5
42B2F
331
42AF9
  5
42AF9
331
43028
  5
4317D
331
42B8D
  5
42B8D
331
42B30
  5
42B30
331
42AFA
  5
42AFA
331
43029
  5
43182
331
42B8E
  5
42B8E
331
42B31
  5
42B31
331
4302A
  5
43183
331
42B8F
  5
42B8F
331
42B32
  5
42B32
331
4302B
  5
43185
331
42B90
  5
42B90
331
43188
  5
43195
331
4302C
  5
43186
331
42B91
  5
42B91
331
431A8
  5
431B1
331
4302D
  5
43189
331
28FE
  5
28FE
331
42B92
  5
42B92
331
431A9
  5
431B4
331
4318A
  5
43196
331
42B93
  5
42B93
331
431AA
  5
431B0
331
4318B
  5
43197
331
42B94
  5
42B94
331
431AB
  5
431AC
331
4318C
  5
43198
331
42B95
  5
42B95
331
431AC
  5
431B5
331
4318D
  5
431A2
331
43031
  5
43021
331
42CD3
  5
42CD3
331
42B96
  5
42B96
331
431AD
  5
431B6
331
4318E
  5
431A3
331
42CD4
  5
42CD4
331
42B97
  5
42B97
331
431AE
  5
431B7
331
42D0B
  5
42D0E
331
42CD5
  5
42CD5
331
42B98
  5
42B98
331
431AF
  5
431BE
331
42B99
  5
42B99
331
431B0
  5
431C5
331
43035
  5
43038
331
42D0D
  5
42D0F
331
42B9A
  5
42B9A
331
431B1
  5
431C6
331
43192
  5
431A7
331
42D0E
  5
42D10
331
42CF7
  5
42CF9
331
42CD8
  5
42CD8
331
42B9B
  5
42B9B
331
43193
  5
431A8
331
42D0F
  5
42D11
331
42CF8
  5
42CFA
331
42CD9
  5
42CD9
331
42B9C
  5
42B9C
331
42CF9
  5
42CFD
331
42B9D
  5
42B9D
331
431B4
  5
4322A
331
43039
  5
4317B
331
42D11
  5
42D16
331
42CFA
  5
42CFF
331
42CDB
  5
42CDB
331
42B9E
  5
42B9E
331
42AEC
  5
42AEC
331
431B5
  5
4322B
331
42B9F
  5
42B9F
331
42AED
  5
42AED
331
431B6
  5
43231
331
43180
  5
4318D
331
42AEE
  5
42AEE
331
43278
  5
4327E
331
431B7
  5
43232
331
43181
  5
4318E
331
42CFD
  5
42D05
331
42CDE
  5
42CDE
331
42AEF
  5
42AEF
331
43298
  5
4329A
331
43279
  5
43281
331
43262
  5
43267
331
43243
  5
43249
331
43299
  5
4329B
331
4327A
  5
43282
331
43263
  5
43268
331
43183
  5
4318F
331
42CFF
  5
42D0B
331
4329A
  5
4329C
331
43245
  5
4324A
331
43184
  5
43190
331
42B85
  5
42B85
331
4329B
  5
4329D
331
43265
  5
43269
331
42CE2
  5
42CE2
331
42B86
  5
42B86
331
4329C
  5
4329E
331
43266
  5
4326B
331
43247
  5
4324B
331
4319D
  5
431A9
331
42CE3
  5
42CE3
331
42B87
  5
42B87
331
4329D
  5
4329F
331
43267
  5
4326D
331
43248
  5
4324C
331
4319E
  5
431AA
331
43187
  5
43194
331
42CE4
  5
42CE4
331
4329E
  5
432A0
331
43249
  5
4324E
331
42CE5
  5
42CE5
331
4329F
  5
432A1
331
43269
  5
4326E
331
4324A
  5
43250
331
42D05
  5
42D0D
331
432A0
  5
432A2
331
42CE7
  5
42CE7
331
432A1
  5
432A3
331
4326B
  5
4326F
331
4324C
  5
43251
331
43282
  5
43025
331
431A2
  5
431AB
331
432A2
  5
432A4
331
4326C
  5
43270
331
43283
  5
43022
331
431A3
  5
4318C
331
42CE9
  5
42CE9
331
432A3
  5
432A5
331
43284
  5
43286
331
4326D
  5
43279
331
4324E
  5
43252
331
4322F
  5
43233
331
43285
  5
43287
331
4326E
  5
4327A
331
432A4
  5
43020
331
4324F
  5
43253
331
43230
  5
43234
331
42CEB
  5
42CEB
331
43286
  5
43288
331
432A5
  5
43029
331
43250
  5
43258
331
43231
  5
43245
331
431A6
  5
431AE
331
43287
  5
43289
331
43251
  5
4325E
331
43232
  5
43247
331
431C6
  5
42CF8
331
431A7
  5
431AF
  0
XRECORD
  5
43327
102
{ACAD_REACTORS
330
43326
102
}
330
43326
100
AcDbXrecord
280
     1
102
SHADEPLOT
 70
     0
  0
GROUP
  5
28C19
102
{ACAD_REACTORS
330
D
102
}
330
D
100
AcDbGroup
300

 70
     1
 71
     1
  0
GROUP
  5
37125
102
{ACAD_REACTORS
330
D
102
}
330
D
100
AcDbGroup
300

 70
     1
 71
     1
  0
GROUP
  5
29128
102
{ACAD_REACTORS
330
D
102
}
330
D
100
AcDbGroup
300

 70
     1
 71
     1
  0
GROUP
  5
32276
102
{ACAD_REACTORS
330
D
102
}
330
D
100
AcDbGroup
300

 70
     1
 71
     1
  0
GROUP
  5
28C1B
102
{ACAD_REACTORS
330
D
102
}
330
D
100
AcDbGroup
300

 70
     1
 71
     1
  0
GROUP
  5
32BC6
102
{ACAD_REACTORS
330
D
102
}
330
D
100
AcDbGroup
300

 70
     1
 71
     1
  0
GROUP
  5
29320
102
{ACAD_REACTORS
330
D
102
}
330
D
100
AcDbGroup
300

 70
     1
 71
     1
  0
GROUP
  5
3D3E6
102
{ACAD_REACTORS
330
D
102
}
330
D
100
AcDbGroup
300

 70
     1
 71
     1
  0
GROUP
  5
292AB
102
{ACAD_REACTORS
330
D
102
}
330
D
100
AcDbGroup
300

 70
     1
 71
     1
  0
GROUP
  5
2CF82
102
{ACAD_REACTORS
330
D
102
}
330
D
100
AcDbGroup
300

 70
     1
 71
     1
  0
GROUP
  5
295B7
102
{ACAD_REACTORS
330
D
102
}
330
D
100
AcDbGroup
300

 70
     1
 71
     1
  0
GROUP
  5
32D33
102
{ACAD_REACTORS
330
D
102
}
330
D
100
AcDbGroup
300

 70
     1
 71
     1
  0
GROUP
  5
28EBB
102
{ACAD_REACTORS
330
D
102
}
330
D
100
AcDbGroup
300

 70
     1
 71
     1
  0
GROUP
  5
32723
102
{ACAD_REACTORS
330
D
102
}
330
D
100
AcDbGroup
300

 70
     1
 71
     1
  0
GROUP
  5
37126
102
{ACAD_REACTORS
330
D
102
}
330
D
100
AcDbGroup
300

 70
     1
 71
     1
  0
GROUP
  5
28C1C
102
{ACAD_REACTORS
330
D
102
}
330
D
100
AcDbGroup
300

 70
     1
 71
     1
  0
GROUP
  5
29808
102
{ACAD_REACTORS
330
D
102
}
330
D
100
AcDbGroup
300

 70
     1
 71
     1
  0
GROUP
  5
3D6B8
102
{ACAD_REACTORS
330
D
102
}
330
D
100
AcDbGroup
300

 70
     1
 71
     1
  0
GROUP
  5
325B8
102
{ACAD_REACTORS
330
D
102
}
330
D
100
AcDbGroup
300

 70
     1
 71
     1
  0
GROUP
  5
32EA0
102
{ACAD_REACTORS
330
D
102
}
330
D
100
AcDbGroup
300

 70
     1
 71
     1
  0
GROUP
  5
2920A
102
{ACAD_REACTORS
330
D
102
}
330
D
100
AcDbGroup
300

 70
     1
 71
     1
  0
GROUP
  5
28C2E
102
{ACAD_REACTORS
330
D
102
}
330
D
100
AcDbGroup
300

 70
     1
 71
     1
  0
GROUP
  5
28F0D
102
{ACAD_REACTORS
330
D
102
}
330
D
100
AcDbGroup
300

 70
     1
 71
     1
  0
GROUP
  5
28C1D
102
{ACAD_REACTORS
330
D
102
}
330
D
100
AcDbGroup
300

 70
     1
 71
     1
  0
GROUP
  5
3244D
102
{ACAD_REACTORS
330
D
102
}
330
D
100
AcDbGroup
300

 70
     1
 71
     1
  0
GROUP
  5
40859
102
{ACAD_REACTORS
330
D
102
}
330
D
100
AcDbGroup
300

 70
     1
 71
     1
  0
GROUP
  5
4085A
102
{ACAD_REACTORS
330
D
102
}
330
D
100
AcDbGroup
300

 70
     1
 71
     1
  0
GROUP
  5
3E456
102
{ACAD_REACTORS
330
D
102
}
330
D
100
AcDbGroup
300

 70
     1
 71
     1
  0
GROUP
  5
3EED8
102
{ACAD_REACTORS
330
D
102
}
330
D
100
AcDbGroup
300

 70
     1
 71
     1
  0
GROUP
  5
40B4E
102
{ACAD_REACTORS
330
D
102
}
330
D
100
AcDbGroup
300

 70
     1
 71
     1
  0
LAYOUT
  5
22
102
{ACAD_XDICTIONARY
360
43322
102
}
102
{ACAD_REACTORS
330
1A
102
}
330
1A
100
AcDbPlotSettings
  1

  2
FX DocuPrint 181 XPL2
  4
A3
  6
ver
 40
4.773083209991455
 41
4.815417766571044
 42
4.8154296875
 43
4.7730712890625
 44
296.9683227539062
 45
419.9889831542968
 46
0.0
 47
0.0
 48
0.0
 49
0.0
140
410.0
141
287.0
142
1.0
143
1.0
 70
 11952
 72
     1
 73
     1
 74
     4
  7
monochrome.ctb
 75
    16
147
1.0
148
0.0
149
0.0
100
AcDbLayout
  1
Model
 70
     1
 71
     0
 10
0.0
 20
0.0
 11
12.0
 21
9.0
 12
0.0
 22
0.0
 32
0.0
 14
0.0
 24
0.0
 34
0.0
 15
0.0
 25
0.0
 35
0.0
146
0.0
 13
0.0
 23
0.0
 33
0.0
 16
1.0
 26
0.0
 36
0.0
 17
0.0
 27
1.0
 37
0.0
 76
     0
330
1F
331
413B5
  0
LAYOUT
  5
2D9D9
102
{ACAD_XDICTIONARY
360
43324
102
}
102
{ACAD_REACTORS
330
1A
102
}
330
1A
100
AcDbPlotSettings
  1

  2
EPSON LP-8000C
  4
A4
  6

 40
5.873749732971191
 41
5.873747825622558
 42
5.873748779296875
 43
5.873748779296875
 44
209.9733276367187
 45
297.0106506347656
 46
0.0
 47
0.0
 48
0.0
 49
0.0
140
0.0
141
0.0
142
1.0
143
1.0
 70
   688
 72
     0
 73
     1
 74
     5
  7

 75
    16
147
1.0
148
0.0
149
0.0
100
AcDbLayout
  1
ﾚｲｱｳﾄ1
 70
     1
 71
     1
 10
-0.2312499519408218
 20
-0.2312499894870548
 11
11.4620827502153
 21
8.035416452903447
 12
0.0
 22
0.0
 32
0.0
 14
1.12308328358207
 24
0.7804166500962629
 34
0.0
 15
10.10774955223864
 25
7.023749850866362
 35
0.0
146
0.0
 13
0.0
 23
0.0
 33
0.0
 16
1.0
 26
0.0
 36
0.0
 17
0.0
 27
1.0
 37
0.0
 76
     0
330
2D9D8
331
2D9DF
  0
MATERIAL
  5
32EAC
102
{ACAD_XDICTIONARY
360
32EAD
102
}
102
{ACAD_REACTORS
330
32EA3
102
}
330
32EA3
100
AcDbMaterial
  1
ByBlock
 72
     0
 43
0.0008202099737533
 43
0.0
 43
0.0
 43
0.0
 43
0.0
 43
0.0008202099737533
 43
0.0
 43
0.0
 43
0.0
 43
0.0
 43
1.0
 43
0.0
 43
0.0
 43
0.0
 43
0.0
 43
1.0
 77
     0
 47
0.0008202099737533
 47
0.0
 47
0.0
 47
0.0
 47
0.0
 47
0.0008202099737533
 47
0.0
 47
0.0
 47
0.0
 47
0.0
 47
1.0
 47
0.0
 47
0.0
 47
0.0
 47
0.0
 47
1.0
171
     0
 49
0.0008202099737533
 49
0.0
 49
0.0
 49
0.0
 49
0.0
 49
0.0008202099737533
 49
0.0
 49
0.0
 49
0.0
 49
0.0
 49
1.0
 49
0.0
 49
0.0
 49
0.0
 49
0.0
 49
1.0
175
     0
142
0.0008202099737533
142
0.0
142
0.0
142
0.0
142
0.0
142
0.0008202099737533
142
0.0
142
0.0
142
0.0
142
0.0
142
1.0
142
0.0
142
0.0
142
0.0
142
0.0
142
1.0
179
     0
144
0.0008202099737533
144
0.0
144
0.0
144
0.0
144
0.0
144
0.0008202099737533
144
0.0
144
0.0
144
0.0
144
0.0
144
1.0
144
0.0
144
0.0
144
0.0
144
0.0
144
1.0
147
0.0008202099737533
147
0.0
147
0.0
147
0.0
147
0.0
147
0.0008202099737533
147
0.0
147
0.0
147
0.0
147
0.0
147
1.0
147
0.0
147
0.0
147
0.0
147
0.0
147
1.0
  0
MATERIAL
  5
32EA4
102
{ACAD_XDICTIONARY
360
32EA5
102
}
102
{ACAD_REACTORS
330
32EA3
102
}
330
32EA3
100
AcDbMaterial
  1
ByLayer
 72
     0
 43
0.0008202099737533
 43
0.0
 43
0.0
 43
0.0
 43
0.0
 43
0.0008202099737533
 43
0.0
 43
0.0
 43
0.0
 43
0.0
 43
1.0
 43
0.0
 43
0.0
 43
0.0
 43
0.0
 43
1.0
 77
     0
 47
0.0008202099737533
 47
0.0
 47
0.0
 47
0.0
 47
0.0
 47
0.0008202099737533
 47
0.0
 47
0.0
 47
0.0
 47
0.0
 47
1.0
 47
0.0
 47
0.0
 47
0.0
 47
0.0
 47
1.0
171
     0
 49
0.0008202099737533
 49
0.0
 49
0.0
 49
0.0
 49
0.0
 49
0.0008202099737533
 49
0.0
 49
0.0
 49
0.0
 49
0.0
 49
1.0
 49
0.0
 49
0.0
 49
0.0
 49
0.0
 49
1.0
175
     0
142
0.0008202099737533
142
0.0
142
0.0
142
0.0
142
0.0
142
0.0008202099737533
142
0.0
142
0.0
142
0.0
142
0.0
142
1.0
142
0.0
142
0.0
142
0.0
142
0.0
142
1.0
179
     0
144
0.0008202099737533
144
0.0
144
0.0
144
0.0
144
0.0
144
0.0008202099737533
144
0.0
144
0.0
144
0.0
144
0.0
144
1.0
144
0.0
144
0.0
144
0.0
144
0.0
144
1.0
147
0.0008202099737533
147
0.0
147
0.0
147
0.0
147
0.0
147
0.0008202099737533
147
0.0
147
0.0
147
0.0
147
0.0
147
1.0
147
0.0
147
0.0
147
0.0
147
0.0
147
1.0
  0
MATERIAL
  5
32EB4
102
{ACAD_XDICTIONARY
360
32EB5
102
}
102
{ACAD_REACTORS
330
32EA3
102
}
330
32EA3
100
AcDbMaterial
  1
Global
 72
     0
 43
0.0008202099737533
 43
0.0
 43
0.0
 43
0.0
 43
0.0
 43
0.0008202099737533
 43
0.0
 43
0.0
 43
0.0
 43
0.0
 43
1.0
 43
0.0
 43
0.0
 43
0.0
 43
0.0
 43
1.0
 77
     0
 47
0.0008202099737533
 47
0.0
 47
0.0
 47
0.0
 47
0.0
 47
0.0008202099737533
 47
0.0
 47
0.0
 47
0.0
 47
0.0
 47
1.0
 47
0.0
 47
0.0
 47
0.0
 47
0.0
 47
1.0
171
     0
 49
0.0008202099737533
 49
0.0
 49
0.0
 49
0.0
 49
0.0
 49
0.0008202099737533
 49
0.0
 49
0.0
 49
0.0
 49
0.0
 49
1.0
 49
0.0
 49
0.0
 49
0.0
 49
0.0
 49
1.0
175
     0
142
0.0008202099737533
142
0.0
142
0.0
142
0.0
142
0.0
142
0.0008202099737533
142
0.0
142
0.0
142
0.0
142
0.0
142
1.0
142
0.0
142
0.0
142
0.0
142
0.0
142
1.0
179
     0
144
0.0008202099737533
144
0.0
144
0.0
144
0.0
144
0.0
144
0.0008202099737533
144
0.0
144
0.0
144
0.0
144
0.0
144
1.0
144
0.0
144
0.0
144
0.0
144
0.0
144
1.0
147
0.0008202099737533
147
0.0
147
0.0
147
0.0
147
0.0
147
0.0008202099737533
147
0.0
147
0.0
147
0.0
147
0.0
147
1.0
147
0.0
147
0.0
147
0.0
147
0.0
147
1.0
  0
MLEADERSTYLE
  5
33201
102
{ACAD_REACTORS
330
32EF2
102
}
330
32EF2
100
AcDbMLeaderStyle
170
     0
171
     1
172
     0
 90
        0
 40
0.0
 41
0.0
173
     1
 91
-1073741824
340
14
 92
       -2
290
     1
 42
0.09
291
     0
 43
0.36
  3
Standard
341
FB25
 44
2.5
300

342
56
174
     1
178
     6
175
     1
176
     0
 93
-1073741824
 45
2.5
292
     0
297
     1
 46
0.18
 94
-1056964608
 47
1.0
 49
1.0
140
1.0
293
     1
141
0.0
294
     1
177
     0
142
1.0
295
     0
296
     0
143
0.125
1001
ACAD_MLEADERVER
1070
     2
  0
MLEADERSTYLE
  5
32EF3
102
{ACAD_REACTORS
330
32EF2
330
432DF
330
432E0
102
}
330
32EF2
100
AcDbMLeaderStyle
170
     0
171
     1
172
     0
 90
        0
 40
0.0
 41
0.0
173
     1
 91
-1073741824
340
14
 92
       -2
290
     1
 42
0.09
291
     0
 43
0.36
  3
Standard
341
FB25
 44
2.5
300

342
56
174
     1
178
     6
175
     1
176
     0
 93
-1073741824
 45
2.5
292
     0
297
     1
 46
0.18
 94
-1056964608
 47
1.0
 49
1.0
140
1.0
293
     1
141
0.0
294
     1
177
     0
142
1.0
295
     0
296
     0
143
0.125
1001
ACAD_MLEADERVER
1070
     2
  0
MLINESTYLE
  5
18
102
{ACAD_REACTORS
330
17
102
}
330
17
100
AcDbMlineStyle
  2
STANDARD
 70
     0
  3

 62
   256
 51
90.0
 52
90.0
 71
     2
 49
0.5
 62
   256
  6
BYLAYER
 49
-0.5
 62
   256
  6
BYLAYER
  0
ACDBPLACEHOLDER
  5
F
102
{ACAD_REACTORS
330
E
102
}
330
E
  0
SCALE
  5
32ED1
102
{ACAD_REACTORS
330
32ED0
102
}
330
32ED0
100
AcDbScale
 70
     0
300
1:1
140
1.0
141
1.0
290
     1
  0
SCALE
  5
32FB3
102
{ACAD_REACTORS
330
32ED0
102
}
330
32ED0
100
AcDbScale
 70
     0
300
1:2
140
1.0
141
2.0
290
     0
  0
SCALE
  5
32FB4
102
{ACAD_REACTORS
330
32ED0
102
}
330
32ED0
100
AcDbScale
 70
     0
300
1:4
140
1.0
141
4.0
290
     0
  0
SCALE
  5
32FB5
102
{ACAD_REACTORS
330
32ED0
102
}
330
32ED0
100
AcDbScale
 70
     0
300
1:5
140
1.0
141
5.0
290
     0
  0
SCALE
  5
32FB6
102
{ACAD_REACTORS
330
32ED0
102
}
330
32ED0
100
AcDbScale
 70
     0
300
1:8
140
1.0
141
8.0
290
     0
  0
SCALE
  5
32FB7
102
{ACAD_REACTORS
330
32ED0
102
}
330
32ED0
100
AcDbScale
 70
     0
300
1:10
140
1.0
141
10.0
290
     0
  0
SCALE
  5
32FB8
102
{ACAD_REACTORS
330
32ED0
102
}
330
32ED0
100
AcDbScale
 70
     0
300
1:16
140
1.0
141
16.0
290
     0
  0
SCALE
  5
32FB9
102
{ACAD_REACTORS
330
32ED0
102
}
330
32ED0
100
AcDbScale
 70
     0
300
1:20
140
1.0
141
20.0
290
     0
  0
SCALE
  5
32FBA
102
{ACAD_REACTORS
330
32ED0
102
}
330
32ED0
100
AcDbScale
 70
     0
300
1:30
140
1.0
141
30.0
290
     0
  0
SCALE
  5
32FBB
102
{ACAD_REACTORS
330
32ED0
102
}
330
32ED0
100
AcDbScale
 70
     0
300
1:40
140
1.0
141
40.0
290
     0
  0
SCALE
  5
32FBC
102
{ACAD_REACTORS
330
32ED0
102
}
330
32ED0
100
AcDbScale
 70
     0
300
1:50
140
1.0
141
50.0
290
     0
  0
SCALE
  5
32FBD
102
{ACAD_REACTORS
330
32ED0
102
}
330
32ED0
100
AcDbScale
 70
     0
300
1:100
140
1.0
141
100.0
290
     0
  0
SCALE
  5
32FBE
102
{ACAD_REACTORS
330
32ED0
102
}
330
32ED0
100
AcDbScale
 70
     0
300
2:1
140
2.0
141
1.0
290
     0
  0
SCALE
  5
32FBF
102
{ACAD_REACTORS
330
32ED0
102
}
330
32ED0
100
AcDbScale
 70
     0
300
4:1
140
4.0
141
1.0
290
     0
  0
SCALE
  5
32FC0
102
{ACAD_REACTORS
330
32ED0
102
}
330
32ED0
100
AcDbScale
 70
     0
300
8:1
140
8.0
141
1.0
290
     0
  0
SCALE
  5
32FC1
102
{ACAD_REACTORS
330
32ED0
102
}
330
32ED0
100
AcDbScale
 70
     0
300
10:1
140
10.0
141
1.0
290
     0
  0
SCALE
  5
32FC2
102
{ACAD_REACTORS
330
32ED0
102
}
330
32ED0
100
AcDbScale
 70
     0
300
100:1
140
100.0
141
1.0
290
     0
  0
SCALE
  5
32FC3
102
{ACAD_REACTORS
330
32ED0
102
}
330
32ED0
100
AcDbScale
 70
     0
300
1/128" = 1'-0"
140
0.0078125
141
12.0
290
     0
  0
SCALE
  5
32FC4
102
{ACAD_REACTORS
330
32ED0
102
}
330
32ED0
100
AcDbScale
 70
     0
300
1/64" = 1'-0"
140
0.015625
141
12.0
290
     0
  0
SCALE
  5
32FC5
102
{ACAD_REACTORS
330
32ED0
102
}
330
32ED0
100
AcDbScale
 70
     0
300
1/32" = 1'-0"
140
0.03125
141
12.0
290
     0
  0
SCALE
  5
32FC6
102
{ACAD_REACTORS
330
32ED0
102
}
330
32ED0
100
AcDbScale
 70
     0
300
1/16" = 1'-0"
140
0.0625
141
12.0
290
     0
  0
SCALE
  5
32FC7
102
{ACAD_REACTORS
330
32ED0
102
}
330
32ED0
100
AcDbScale
 70
     0
300
3/32" = 1'-0"
140
0.09375
141
12.0
290
     0
  0
SCALE
  5
32FC8
102
{ACAD_REACTORS
330
32ED0
102
}
330
32ED0
100
AcDbScale
 70
     0
300
1/8" = 1'-0"
140
0.125
141
12.0
290
     0
  0
SCALE
  5
32FC9
102
{ACAD_REACTORS
330
32ED0
102
}
330
32ED0
100
AcDbScale
 70
     0
300
3/16" = 1'-0"
140
0.1875
141
12.0
290
     0
  0
SCALE
  5
32FCA
102
{ACAD_REACTORS
330
32ED0
102
}
330
32ED0
100
AcDbScale
 70
     0
300
1/4" = 1'-0"
140
0.25
141
12.0
290
     0
  0
SCALE
  5
32FCB
102
{ACAD_REACTORS
330
32ED0
102
}
330
32ED0
100
AcDbScale
 70
     0
300
3/8" = 1'-0"
140
0.375
141
12.0
290
     0
  0
SCALE
  5
32FCC
102
{ACAD_REACTORS
330
32ED0
102
}
330
32ED0
100
AcDbScale
 70
     0
300
1/2" = 1'-0"
140
0.5
141
12.0
290
     0
  0
SCALE
  5
32FCD
102
{ACAD_REACTORS
330
32ED0
102
}
330
32ED0
100
AcDbScale
 70
     0
300
3/4" = 1'-0"
140
0.75
141
12.0
290
     0
  0
SCALE
  5
32FCE
102
{ACAD_REACTORS
330
32ED0
102
}
330
32ED0
100
AcDbScale
 70
     0
300
1" = 1'-0"
140
1.0
141
12.0
290
     0
  0
SCALE
  5
32FCF
102
{ACAD_REACTORS
330
32ED0
102
}
330
32ED0
100
AcDbScale
 70
     0
300
1-1/2" = 1'-0"
140
1.5
141
12.0
290
     0
  0
SCALE
  5
32FD0
102
{ACAD_REACTORS
330
32ED0
102
}
330
32ED0
100
AcDbScale
 70
     0
300
3" = 1'-0"
140
3.0
141
12.0
290
     0
  0
SCALE
  5
32FD1
102
{ACAD_REACTORS
330
32ED0
102
}
330
32ED0
100
AcDbScale
 70
     0
300
6" = 1'-0"
140
6.0
141
12.0
290
     0
  0
SCALE
  5
32FD2
102
{ACAD_REACTORS
330
32ED0
102
}
330
32ED0
100
AcDbScale
 70
     0
300
1'-0" = 1'-0"
140
12.0
141
12.0
290
     0
  0
TABLESTYLE
  5
32ECF
102
{ACAD_XDICTIONARY
360
32F29
102
}
102
{ACAD_REACTORS
330
32ECE
102
}
330
32ECE
100
AcDbTableStyle
  3
Standard
 70
     0
 71
     0
 40
0.06
 41
0.06
280
     0
281
     0
  7
Standard
140
0.18
170
     2
 62
     0
 63
     7
283
     0
274
    -2
284
     1
 64
     0
275
    -2
285
     1
 65
     0
276
    -2
286
     1
 66
     0
277
    -2
287
     1
 67
     0
278
    -2
288
     1
 68
     0
279
    -2
289
     1
 69
     0
  7
Standard
140
0.25
170
     5
 62
     0
 63
     7
283
     0
274
    -2
284
     1
 64
     0
275
    -2
285
     1
 65
     0
276
    -2
286
     1
 66
     0
277
    -2
287
     1
 67
     0
278
    -2
288
     1
 68
     0
279
    -2
289
     1
 69
     0
  7
Standard
140
0.18
170
     5
 62
     0
 63
     7
283
     0
274
    -2
284
     1
 64
     0
275
    -2
285
     1
 65
     0
276
    -2
286
     1
 66
     0
277
    -2
287
     1
 67
     0
278
    -2
288
     1
 68
     0
279
    -2
289
     1
 69
     0
  0
VISUALSTYLE
  5
32EC2
102
{ACAD_REACTORS
330
32EBC
102
}
330
32EBC
100
AcDbVisualStyle
  2
2dWireframe
 70
     4
 71
     0
 72
     2
 73
     0
 90
        0
 40
-0.6
 41
-30.0
 62
     5
 63
     7
 74
     1
 91
        4
 64
     7
 65
   257
 75
     1
175
     1
 42
1.0
 92
        0
 66
   257
 43
1.0
 76
     1
 77
     6
 78
     2
 67
     7
 79
     5
170
     0
171
     0
290
     0
174
     0
 93
        1
 44
0.0
173
     0
291
     0
 45
0.0
1001
ACAD
1000
AcDbSavedByObjectVersion
1070
     0
  0
VISUALSTYLE
  5
32EC4
102
{ACAD_REACTORS
330
32EBC
102
}
330
32EBC
100
AcDbVisualStyle
  2
3D Hidden
 70
     6
 71
     1
 72
     2
 73
     2
 90
        0
 40
-0.6
 41
-30.0
 62
     5
 63
     7
 74
     2
 91
        2
 64
     7
 65
   257
 75
     2
175
     1
 42
40.0
 92
        0
 66
   257
 43
1.0
 76
     1
 77
     6
 78
     2
 67
     7
 79
     3
170
     0
171
     0
290
     0
174
     0
 93
        1
 44
0.0
173
     0
291
     0
 45
0.0
1001
ACAD
1000
AcDbSavedByObjectVersion
1070
     0
  0
VISUALSTYLE
  5
32EC3
102
{ACAD_REACTORS
330
32EBC
102
}
330
32EBC
100
AcDbVisualStyle
  2
3dWireframe
 70
     5
 71
     0
 72
     2
 73
     0
 90
        0
 40
-0.6
 41
-30.0
 62
     5
 63
     7
 74
     1
 91
        4
 64
     7
 65
   257
 75
     1
175
     1
 42
1.0
 92
        0
 66
   257
 43
1.0
 76
     1
 77
     6
 78
     2
 67
     7
 79
     5
170
     0
171
     0
290
     0
174
     0
 93
        1
 44
0.0
173
     0
291
     0
 45
0.0
1001
ACAD
1000
AcDbSavedByObjectVersion
1070
     0
  0
VISUALSTYLE
  5
32EC1
102
{ACAD_REACTORS
330
32EBC
102
}
330
32EBC
100
AcDbVisualStyle
  2
Basic
 70
     7
 71
     1
 72
     0
 73
     1
 90
        0
 40
-0.6
 41
-30.0
 62
     5
 63
     7
 74
     0
 91
        4
 64
     7
 65
   257
 75
     1
175
     1
 42
1.0
 92
        8
 66
     7
 43
1.0
 76
     1
 77
     6
 78
     2
 67
     7
 79
     5
170
     0
171
     0
290
     0
174
     0
 93
        1
 44
0.0
173
     0
291
     1
 45
0.0
1001
ACAD
1000
AcDbSavedByObjectVersion
1070
     0
  0
VISUALSTYLE
  5
32EC8
102
{ACAD_REACTORS
330
32EBC
102
}
330
32EBC
100
AcDbVisualStyle
  2
Brighten
 70
    12
 71
     2
 72
     2
 73
     0
 90
        0
 40
-0.6
 41
-30.0
 62
     5
 63
     7
 74
     1
 91
        4
 64
     7
 65
   257
 75
     1
175
     1
 42
1.0
 92
        8
 66
     7
 43
1.0
 76
     1
 77
     6
 78
     2
 67
     7
 79
     5
170
     0
171
     0
290
     0
174
     0
 93
        1
 44
50.0
173
     0
291
     1
 45
0.0
1001
ACAD
1000
AcDbSavedByObjectVersion
1070
     0
  0
VISUALSTYLE
  5
32ECC
102
{ACAD_REACTORS
330
32EBC
102
}
330
32EBC
100
AcDbVisualStyle
  2
ColorChange
 70
    16
 71
     2
 72
     2
 73
     3
 90
        0
 40
-0.6
 41
-30.0
 62
     5
 63
     8
 74
     1
 91
        4
 64
     7
 65
   257
 75
     1
175
     1
 42
1.0
 92
        8
 66
     8
 43
1.0
 76
     1
 77
     6
 78
     2
 67
     7
 79
     5
170
     0
171
     0
290
     0
174
     0
 93
        1
 44
0.0
173
     0
291
     1
 45
0.0
1001
ACAD
1000
AcDbSavedByObjectVersion
1070
     0
  0
VISUALSTYLE
  5
32EC5
102
{ACAD_REACTORS
330
32EBC
102
}
330
32EBC
100
AcDbVisualStyle
  2
Conceptual
 70
     9
 71
     3
 72
     2
 73
     0
 90
        0
 40
-0.6
 41
-30.0
 62
     5
 63
     7
 74
     2
 91
        2
 64
     7
 65
   257
 75
     1
175
     1
 42
40.0
 92
        8
 66
     7
 43
1.0
 76
     1
 77
     6
 78
     2
 67
     7
 79
     3
170
     0
171
     0
290
     0
174
     0
 93
        1
 44
0.0
173
     0
291
     0
 45
0.0
1001
ACAD
1000
AcDbSavedByObjectVersion
1070
     0
  0
VISUALSTYLE
  5
32EC7
102
{ACAD_REACTORS
330
32EBC
102
}
330
32EBC
100
AcDbVisualStyle
  2
Dim
 70
    11
 71
     2
 72
     2
 73
     0
 90
        0
 40
-0.6
 41
-30.0
 62
     5
 63
     7
 74
     1
 91
        4
 64
     7
 65
   257
 75
     1
175
     1
 42
1.0
 92
        8
 66
     7
 43
1.0
 76
     1
 77
     6
 78
     2
 67
     7
 79
     5
170
     0
171
     0
290
     0
174
     0
 93
        1
 44
-50.0
173
     0
291
     1
 45
0.0
1001
ACAD
1000
AcDbSavedByObjectVersion
1070
     0
  0
VISUALSTYLE
  5
32ECB
102
{ACAD_REACTORS
330
32EBC
102
}
330
32EBC
100
AcDbVisualStyle
  2
Facepattern
 70
    15
 71
     2
 72
     2
 73
     0
 90
        0
 40
-0.6
 41
-30.0
 62
     5
 63
     7
 74
     1
 91
        4
 64
     7
 65
   257
 75
     1
175
     1
 42
1.0
 92
        8
 66
     7
 43
1.0
 76
     1
 77
     6
 78
     2
 67
     7
 79
     5
170
     0
171
     0
290
     0
174
     0
 93
        1
 44
0.0
173
     0
291
     1
 45
0.0
1001
ACAD
1000
AcDbSavedByObjectVersion
1070
     0
  0
VISUALSTYLE
  5
32EBD
102
{ACAD_REACTORS
330
32EBC
102
}
330
32EBC
100
AcDbVisualStyle
  2
Flat
 70
     0
 71
     2
 72
     1
 73
     1
 90
        2
 40
-0.6
 41
30.0
 62
     5
 63
     7
 74
     0
 91
        4
 64
     7
 65
   257
 75
     1
175
     1
 42
1.0
 92
        8
 66
     7
 43
1.0
 76
     1
 77
     6
 78
     2
 67
     7
 79
     5
170
     0
171
     0
290
     0
174
     0
 93
       13
 44
0.0
173
     0
291
     1
 45
0.0
1001
ACAD
1000
AcDbSavedByObjectVersion
1070
     0
  0
VISUALSTYLE
  5
32EBE
102
{ACAD_REACTORS
330
32EBC
102
}
330
32EBC
100
AcDbVisualStyle
  2
FlatWithEdges
 70
     1
 71
     2
 72
     1
 73
     1
 90
        2
 40
-0.6
 41
30.0
 62
     5
 63
     7
 74
     1
 91
        4
 64
     7
 65
   257
 75
     1
175
     1
 42
1.0
 92
        0
 66
   257
 43
1.0
 76
     1
 77
     6
 78
     2
 67
     7
 79
     5
170
     0
171
     0
290
     0
174
     0
 93
       13
 44
0.0
173
     0
291
     1
 45
0.0
1001
ACAD
1000
AcDbSavedByObjectVersion
1070
     0
  0
VISUALSTYLE
  5
32EBF
102
{ACAD_REACTORS
330
32EBC
102
}
330
32EBC
100
AcDbVisualStyle
  2
Gouraud
 70
     2
 71
     2
 72
     2
 73
     1
 90
        2
 40
-0.6
 41
30.0
 62
     5
 63
     7
 74
     0
 91
        4
 64
     7
 65
   257
 75
     1
175
     1
 42
1.0
 92
        0
 66
     7
 43
1.0
 76
     1
 77
     6
 78
     2
 67
     7
 79
     5
170
     0
171
     0
290
     0
174
     0
 93
       13
 44
0.0
173
     0
291
     1
 45
0.0
1001
ACAD
1000
AcDbSavedByObjectVersion
1070
     0
  0
VISUALSTYLE
  5
32EC0
102
{ACAD_REACTORS
330
32EBC
102
}
330
32EBC
100
AcDbVisualStyle
  2
GouraudWithEdges
 70
     3
 71
     2
 72
     2
 73
     1
 90
        2
 40
-0.6
 41
30.0
 62
     5
 63
     7
 74
     1
 91
        4
 64
     7
 65
   257
 75
     1
175
     1
 42
1.0
 92
        0
 66
   257
 43
1.0
 76
     1
 77
     6
 78
     2
 67
     7
 79
     5
170
     0
171
     0
290
     0
174
     0
 93
       13
 44
0.0
173
     0
291
     1
 45
0.0
1001
ACAD
1000
AcDbSavedByObjectVersion
1070
     0
  0
VISUALSTYLE
  5
32ECA
102
{ACAD_REACTORS
330
32EBC
102
}
330
32EBC
100
AcDbVisualStyle
  2
Linepattern
 70
    14
 71
     2
 72
     2
 73
     0
 90
        0
 40
-0.6
 41
-30.0
 62
     5
 63
     7
 74
     1
 91
        4
 64
     7
 65
   257
 75
     7
175
     7
 42
1.0
 92
        8
 66
     7
 43
1.0
 76
     1
 77
     6
 78
     2
 67
     7
 79
     5
170
     0
171
     0
290
     0
174
     0
 93
        1
 44
0.0
173
     0
291
     1
 45
0.0
1001
ACAD
1000
AcDbSavedByObjectVersion
1070
     0
  0
VISUALSTYLE
  5
32EC6
102
{ACAD_REACTORS
330
32EBC
102
}
330
32EBC
100
AcDbVisualStyle
  2
Realistic
 70
     8
 71
     2
 72
     2
 73
     0
 90
        0
 40
-0.6
 41
-30.0
 62
     5
 63
     7
 74
     1
 91
        0
 64
     7
 65
   257
 75
     1
175
     1
 42
1.0
 92
        8
 66
     8
 43
1.0
 76
     1
 77
     6
 78
     2
 67
     7
 79
     5
170
     0
171
     0
290
     0
174
     0
 93
       13
 44
0.0
173
     0
291
     0
 45
0.0
1001
ACAD
1000
AcDbSavedByObjectVersion
1070
     0
  0
VISUALSTYLE
  5
32EC9
102
{ACAD_REACTORS
330
32EBC
102
}
330
32EBC
100
AcDbVisualStyle
  2
Thicken
 70
    13
 71
     2
 72
     2
 73
     0
 90
        0
 40
-0.6
 41
-30.0
 62
     5
 63
     7
 74
     1
 91
        4
 64
     7
 65
   257
 75
     1
175
     1
 42
1.0
 92
       12
 66
     7
 43
1.0
 76
     1
 77
     6
 78
     2
 67
     7
 79
     5
170
     0
171
     0
290
     0
174
     0
 93
        1
 44
0.0
173
     0
291
     1
 45
0.0
1001
ACAD
1000
AcDbSavedByObjectVersion
1070
     0
  0
DICTIONARYVAR
  5
32F2F
102
{ACAD_REACTORS
330
22A9
102
}
330
22A9
100
DictionaryVariables
280
     0
  1
1:1
  0
DICTIONARYVAR
  5
32F2D
102
{ACAD_REACTORS
330
22A9
102
}
330
22A9
100
DictionaryVariables
280
     0
  1
1-1
  0
DICTIONARYVAR
  5
32F2C
102
{ACAD_REACTORS
330
22A9
102
}
330
22A9
100
DictionaryVariables
280
     0
  1
STANDARD
  0
DICTIONARYVAR
  5
29F7A
102
{ACAD_REACTORS
330
22A9
102
}
330
22A9
100
DictionaryVariables
280
     0
  1
1
  0
DICTIONARYVAR
  5
377AE
102
{ACAD_REACTORS
330
22A9
102
}
330
22A9
100
DictionaryVariables
280
     0
  1
0
  0
DICTIONARYVAR
  5
32F31
102
{ACAD_REACTORS
330
22A9
102
}
330
22A9
100
DictionaryVariables
280
     0
  1
1
  0
DICTIONARYVAR
  5
32F32
102
{ACAD_REACTORS
330
22A9
102
}
330
22A9
100
DictionaryVariables
280
     0
  1
15
  0
DICTIONARYVAR
  5
32F30
102
{ACAD_REACTORS
330
22A9
102
}
330
22A9
100
DictionaryVariables
280
     0
  1
0
  0
DICTIONARYVAR
  5
32F2E
102
{ACAD_REACTORS
330
22A9
102
}
330
22A9
100
DictionaryVariables
280
     0
  1
0
  0
DICTIONARYVAR
  5
22AA
102
{ACAD_REACTORS
330
22A9
102
}
330
22A9
100
DictionaryVariables
280
     0
  1
96
  0
DICTIONARY
  5
43322
330
22
100
AcDbDictionary
280
     1
281
     1
  3
ACAD_XREC_ROUNDTRIP
360
43323
  0
DICTIONARY
  5
43324
330
2D9D9
100
AcDbDictionary
280
     1
281
     1
  3
ACAD_XREC_ROUNDTRIP
360
43325
  0
DICTIONARY
  5
32EAD
330
32EAC
100
AcDbDictionary
280
     1
281
     1
  3
ACAD_XREC_ROUNDTRIP
360
43329
  3
BUMPTILE
360
32EAF
  3
DIFFUSETILE
360
32EAE
  3
OPACITYTILE
360
32EB2
  3
REFLECTIONTILE
360
32EB1
  3
REFRACTIONTILE
360
32EB3
  3
SPECULARTILE
360
32EB0
  0
DICTIONARY
  5
32EA5
330
32EA4
100
AcDbDictionary
280
     1
281
     1
  3
ACAD_XREC_ROUNDTRIP
360
43328
  3
BUMPTILE
360
32EA7
  3
DIFFUSETILE
360
32EA6
  3
OPACITYTILE
360
32EAA
  3
REFLECTIONTILE
360
32EA9
  3
REFRACTIONTILE
360
32EAB
  3
SPECULARTILE
360
32EA8
  0
DICTIONARY
  5
32EB5
330
32EB4
100
AcDbDictionary
280
     1
281
     1
  3
ACAD_XREC_ROUNDTRIP
360
4332A
  3
BUMPTILE
360
32EB7
  3
DIFFUSETILE
360
32EB6
  3
OPACITYTILE
360
32EBA
  3
REFLECTIONTILE
360
32EB9
  3
REFRACTIONTILE
360
32EBB
  3
SPECULARTILE
360
32EB8
  0
DICTIONARY
  5
32F29
330
32ECF
100
AcDbDictionary
280
     1
281
     1
  3
ACAD_ROUNDTRIP_2008_TABLESTYLE_CELLSTYLEMAP
360
43320
  3
ACAD_XREC_ROUNDTRIP
360
4332B
  0
XRECORD
  5
43323
102
{ACAD_REACTORS
330
43322
102
}
330
43322
100
AcDbXrecord
280
     1
102
SHADEPLOT
 70
     0
102
SHADEPLOTRESLEVEL
 70
     2
102
SHADEPLOTCUSTOMDPI
 70
   300
  0
XRECORD
  5
43325
102
{ACAD_REACTORS
330
43324
102
}
330
43324
100
AcDbXrecord
280
     1
102
SHADEPLOT
 70
     0
102
SHADEPLOTRESLEVEL
 70
     2
102
SHADEPLOTCUSTOMDPI
 70
   300
  0
XRECORD
  5
43329
102
{ACAD_REACTORS
330
32EAD
102
}
330
32EAD
100
AcDbXrecord
280
     1
102
MATERIAL
148
0.0
149
0.0
149
0.0
 93
        0
 94
      127
282
     0
 72
     0
 77
     0
171
     0
175
     0
179
     0
273
     0
  0
XRECORD
  5
32EAF
102
{ACAD_REACTORS
330
32EAD
102
}
330
32EAD
100
AcDbXrecord
280
     1
270
     1
271
     1
  0
XRECORD
  5
32EAE
102
{ACAD_REACTORS
330
32EAD
102
}
330
32EAD
100
AcDbXrecord
280
     1
270
     1
271
     1
  0
XRECORD
  5
32EB2
102
{ACAD_REACTORS
330
32EAD
102
}
330
32EAD
100
AcDbXrecord
280
     1
270
     1
271
     1
  0
XRECORD
  5
32EB1
102
{ACAD_REACTORS
330
32EAD
102
}
330
32EAD
100
AcDbXrecord
280
     1
270
     1
271
     1
  0
XRECORD
  5
32EB3
102
{ACAD_REACTORS
330
32EAD
102
}
330
32EAD
100
AcDbXrecord
280
     1
270
     1
271
     1
  0
XRECORD
  5
32EB0
102
{ACAD_REACTORS
330
32EAD
102
}
330
32EAD
100
AcDbXrecord
280
     1
270
     1
271
     1
  0
XRECORD
  5
43328
102
{ACAD_REACTORS
330
32EA5
102
}
330
32EA5
100
AcDbXrecord
280
     1
102
MATERIAL
148
0.0
149
0.0
149
0.0
 93
        0
 94
      127
282
     0
 72
     0
 77
     0
171
     0
175
     0
179
     0
273
     0
  0
XRECORD
  5
32EA7
102
{ACAD_REACTORS
330
32EA5
102
}
330
32EA5
100
AcDbXrecord
280
     1
270
     1
271
     1
  0
XRECORD
  5
32EA6
102
{ACAD_REACTORS
330
32EA5
102
}
330
32EA5
100
AcDbXrecord
280
     1
270
     1
271
     1
  0
XRECORD
  5
32EAA
102
{ACAD_REACTORS
330
32EA5
102
}
330
32EA5
100
AcDbXrecord
280
     1
270
     1
271
     1
  0
XRECORD
  5
32EA9
102
{ACAD_REACTORS
330
32EA5
102
}
330
32EA5
100
AcDbXrecord
280
     1
270
     1
271
     1
  0
XRECORD
  5
32EAB
102
{ACAD_REACTORS
330
32EA5
102
}
330
32EA5
100
AcDbXrecord
280
     1
270
     1
271
     1
  0
XRECORD
  5
32EA8
102
{ACAD_REACTORS
330
32EA5
102
}
330
32EA5
100
AcDbXrecord
280
     1
270
     1
271
     1
  0
XRECORD
  5
4332A
102
{ACAD_REACTORS
330
32EB5
102
}
330
32EB5
100
AcDbXrecord
280
     1
102
MATERIAL
148
0.0
149
0.0
149
0.0
 93
        0
 94
      127
282
     0
 72
     0
 77
     0
171
     0
175
     0
179
     0
273
     0
  0
XRECORD
  5
32EB7
102
{ACAD_REACTORS
330
32EB5
102
}
330
32EB5
100
AcDbXrecord
280
     1
270
     1
271
     1
  0
XRECORD
  5
32EB6
102
{ACAD_REACTORS
330
32EB5
102
}
330
32EB5
100
AcDbXrecord
280
     1
270
     1
271
     1
  0
XRECORD
  5
32EBA
102
{ACAD_REACTORS
330
32EB5
102
}
330
32EB5
100
AcDbXrecord
280
     1
270
     1
271
     1
  0
XRECORD
  5
32EB9
102
{ACAD_REACTORS
330
32EB5
102
}
330
32EB5
100
AcDbXrecord
280
     1
270
     1
271
     1
  0
XRECORD
  5
32EBB
102
{ACAD_REACTORS
330
32EB5
102
}
330
32EB5
100
AcDbXrecord
280
     1
270
     1
271
     1
  0
XRECORD
  5
32EB8
102
{ACAD_REACTORS
330
32EB5
102
}
330
32EB5
100
AcDbXrecord
280
     1
270
     1
271
     1
  0
CELLSTYLEMAP
  5
43320
102
{ACAD_REACTORS
330
32F29
102
}
330
32F29
100
AcDbCellStyleMap
 90
        3
300
CELLSTYLE
  1
TABLEFORMAT_BEGIN
 90
        5
170
     1
 91
        0
 92
    32768
 62
   257
 93
        1
300
CONTENTFORMAT
  1
CONTENTFORMAT_BEGIN
 90
        0
 91
        0
 92
      512
 93
        0
300

 40
0.0
140
1.0
 94
        5
 62
     0
340
11
144
0.25
309
CONTENTFORMAT_END
171
     1
301
MARGIN
  1
CELLMARGIN_BEGIN
 40
0.06
 40
0.06
 40
0.06
 40
0.06
 40
0.18
 40
0.18
309
CELLMARGIN_END
 94
        6
 95
        1
302
GRIDFORMAT
  1
GRIDFORMAT_BEGIN
 90
        0
 91
        1
 62
     0
 92
       -2
340
0
 93
        0
 40
0.045
309
GRIDFORMAT_END
 95
        2
302
GRIDFORMAT
  1
GRIDFORMAT_BEGIN
 90
        0
 91
        1
 62
     0
 92
       -2
340
0
 93
        0
 40
0.045
309
GRIDFORMAT_END
 95
        4
302
GRIDFORMAT
  1
GRIDFORMAT_BEGIN
 90
        0
 91
        1
 62
     0
 92
       -2
340
0
 93
        0
 40
0.045
309
GRIDFORMAT_END
 95
        8
302
GRIDFORMAT
  1
GRIDFORMAT_BEGIN
 90
        0
 91
        1
 62
     0
 92
       -2
340
0
 93
        0
 40
0.045
309
GRIDFORMAT_END
 95
       16
302
GRIDFORMAT
  1
GRIDFORMAT_BEGIN
 90
        0
 91
        1
 62
     0
 92
       -2
340
0
 93
        0
 40
0.045
309
GRIDFORMAT_END
 95
       32
302
GRIDFORMAT
  1
GRIDFORMAT_BEGIN
 90
        0
 91
        1
 62
     0
 92
       -2
340
0
 93
        0
 40
0.045
309
GRIDFORMAT_END
309
TABLEFORMAT_END
  1
CELLSTYLE_BEGIN
 90
        1
 91
        1
300
_TITLE
309
CELLSTYLE_END
300
CELLSTYLE
  1
TABLEFORMAT_BEGIN
 90
        5
170
     1
 91
        0
 92
        0
 62
   257
 93
        1
300
CONTENTFORMAT
  1
CONTENTFORMAT_BEGIN
 90
        0
 91
        0
 92
      512
 93
        0
300

 40
0.0
140
1.0
 94
        5
 62
     0
340
11
144
0.18
309
CONTENTFORMAT_END
171
     1
301
MARGIN
  1
CELLMARGIN_BEGIN
 40
0.06
 40
0.06
 40
0.06
 40
0.06
 40
0.18
 40
0.18
309
CELLMARGIN_END
 94
        6
 95
        1
302
GRIDFORMAT
  1
GRIDFORMAT_BEGIN
 90
        0
 91
        1
 62
     0
 92
       -2
340
0
 93
        0
 40
0.045
309
GRIDFORMAT_END
 95
        2
302
GRIDFORMAT
  1
GRIDFORMAT_BEGIN
 90
        0
 91
        1
 62
     0
 92
       -2
340
0
 93
        0
 40
0.045
309
GRIDFORMAT_END
 95
        4
302
GRIDFORMAT
  1
GRIDFORMAT_BEGIN
 90
        0
 91
        1
 62
     0
 92
       -2
340
0
 93
        0
 40
0.045
309
GRIDFORMAT_END
 95
        8
302
GRIDFORMAT
  1
GRIDFORMAT_BEGIN
 90
        0
 91
        1
 62
     0
 92
       -2
340
0
 93
        0
 40
0.045
309
GRIDFORMAT_END
 95
       16
302
GRIDFORMAT
  1
GRIDFORMAT_BEGIN
 90
        0
 91
        1
 62
     0
 92
       -2
340
0
 93
        0
 40
0.045
309
GRIDFORMAT_END
 95
       32
302
GRIDFORMAT
  1
GRIDFORMAT_BEGIN
 90
        0
 91
        1
 62
     0
 92
       -2
340
0
 93
        0
 40
0.045
309
GRIDFORMAT_END
309
TABLEFORMAT_END
  1
CELLSTYLE_BEGIN
 90
        2
 91
        1
300
_HEADER
309
CELLSTYLE_END
300
CELLSTYLE
  1
TABLEFORMAT_BEGIN
 90
        5
170
     1
 91
        0
 92
        0
 62
   257
 93
        1
300
CONTENTFORMAT
  1
CONTENTFORMAT_BEGIN
 90
        0
 91
        0
 92
      512
 93
        0
300

 40
0.0
140
1.0
 94
        2
 62
     0
340
11
144
0.18
309
CONTENTFORMAT_END
171
     1
301
MARGIN
  1
CELLMARGIN_BEGIN
 40
0.06
 40
0.06
 40
0.06
 40
0.06
 40
0.18
 40
0.18
309
CELLMARGIN_END
 94
        6
 95
        1
302
GRIDFORMAT
  1
GRIDFORMAT_BEGIN
 90
        0
 91
        1
 62
     0
 92
       -2
340
0
 93
        0
 40
0.045
309
GRIDFORMAT_END
 95
        2
302
GRIDFORMAT
  1
GRIDFORMAT_BEGIN
 90
        0
 91
        1
 62
     0
 92
       -2
340
0
 93
        0
 40
0.045
309
GRIDFORMAT_END
 95
        4
302
GRIDFORMAT
  1
GRIDFORMAT_BEGIN
 90
        0
 91
        1
 62
     0
 92
       -2
340
0
 93
        0
 40
0.045
309
GRIDFORMAT_END
 95
        8
302
GRIDFORMAT
  1
GRIDFORMAT_BEGIN
 90
        0
 91
        1
 62
     0
 92
       -2
340
0
 93
        0
 40
0.045
309
GRIDFORMAT_END
 95
       16
302
GRIDFORMAT
  1
GRIDFORMAT_BEGIN
 90
        0
 91
        1
 62
     0
 92
       -2
340
0
 93
        0
 40
0.045
309
GRIDFORMAT_END
 95
       32
302
GRIDFORMAT
  1
GRIDFORMAT_BEGIN
 90
        0
 91
        1
 62
     0
 92
       -2
340
0
 93
        0
 40
0.045
309
GRIDFORMAT_END
309
TABLEFORMAT_END
  1
CELLSTYLE_BEGIN
 90
        3
 91
        2
300
_DATA
309
CELLSTYLE_END
  0
XRECORD
  5
4332B
102
{ACAD_REACTORS
330
32F29
102
}
330
32F29
100
AcDbXrecord
280
     1
102
ACAD_ROUNDTRIP_PRE2007_TABLESTYLE
 90
      512
 91
        0
  1

 92
      512
 93
        0
  2

 94
      512
 95
        0
  3

  0
ENDSEC
  0
EOF
